At The Drive In

At The Drive In - Quarintined bass tab

At The Drive-In - Quarintined

Cd: Relationship of Command

Tabbed by: EvilSheep23 (evilsheep23@hotmail.com)

Standard Tuning

Intro:6?x

G|---------------------------------------------------|

D|---------5-7-5-------------------------------------|

A|-5-6-7-------------------5-6-7---------------------|

E|-------0-------0-5-6-7-0-------0-3-0-3-3-0-7-5-7-0-|

Verse:7x

G|----------------------------------------|

D|----------------------------------------|

A|------------7-7-7-5-7-7-0-0-0-3-3-3-3-3-|

E|-0--0-0-0-0-----------------------------|

Chorus:4x

G|------------------------------------------------------------------|

D|----------------------Tens----------------------------------------|

A|----------------------10-10-------------9-9-10-10-----------------|

E|-0-0-0-0-0-0--0-0-0-0/------10-10-10-10-----------8-8-8-8-8-8-8-8-|

Intro:4x

Verse:7x

Chorus:4x

Solo:5x

G|----------12-----------------------------------|

D|--------9----9---------------------------------|

A|-7-9-10---------------9-10-9-7--------7--------|

E|---------------7-9-10-----------5-7-8---0-0--3-|

Verse:4x

Thats it!

Get this song at:  amazon.com sheetmusicplus.com

Share your thoughts

0 Comments found