At The Drive In

At The Drive In - Quarintiend bass tab

Intro

G| --------------------------------------------------

D| ----------5h7-5-----------------------------------

A| -5-6-7--------------------5-6-7-------------7-5-7/

E| --------0-------0-5-6-7-0-------0-3-0-3-3-0-------

G| --------------------------------------------------

D| ----------5h7-5-----------------------------------

A| -7-5-7--------------------5-6-7-------------7-5-7/ play 4 times

E| --------0-------0-5-6-7-0-------0-3-0-3-3-0-------

Rest

Verse:

G| ---------------------------------------------

D| ---------------------------------------------

A| ---------7-7-7-5-7-7-7---------3-3-3-3-3-3-3- play 5 times

E| -0--0--0---------------5--5--5---------------

Chorus - play 4 times

G| --------------------------------------------------------------

D| ------------------------5-5-5-5---------5-5-5-5---------------

A| --------------------------------5-5-5-5---------3-3-3-2-3-3-3-

E| -0-0-0-0-0-0---0-0-0-0----------------------------------------

Repeat Intro twice

G| --------------------------------------------------

D| ----------5h7-5-----------------------------------

A| -5-6-7--------------------5-6-7-------------7-5-7/

E| --------0-------0-5-6-7-0-------0-3-0-3-3-0-------

G| --------------------------------------------------

D| ----------5h7-5-----------------------------------

A| -7-5-7--------------------5-6-7-------------7-5-7/

E| --------0-------0-5-6-7-0-------0-3-0-3-3-0-------

Repeat Verse 4 times

G| ---------------------------------------------

D| ---------------------------------------------

A| ---------7-7-7-5-7-7-7---------3-3-3-3-3-3-3-

E| -0--0--0---------------5--5--5---------------

play Chorus 4 times

G| --------------------------------------------------------------

D| ------------------------5-5-5-5---------5-5-5-5---------------

A| --------------------------------5-5-5-5---------3-3-3-2-3-3-3-

E| -0-0-0-0-0-0---0-0-0-0----------------------------------------

Bridge - play 5 times

G| -----------/12------------------------------------

D| ---------9----------------------------------------

A| ----9-10---------------9--10-9-7--------7---------

E| -12-------------7-9-10------------5-7-8----0-3-5-

Play verse 4 times until end (over lyrics to chorus)

G| ---------------------------------------------

D| ---------------------------------------------

A| ---------7-7-7-5-7-7-7---------3-3-3-3-3-3-3-

E| -0--0--0---------------5--5--5---------------

Get this song at:  amazon.com sheetmusicplus.com

Share your thoughts

0 Comments found