At The Drive In

At The Drive In - Quarantne bass tab

Song: Quarantine

Artist: At the drive-in

Tabbed by: Aaron tilton

aaron_a7x@yahoo.com

Please mail me any corrections

There are many different finering styles for this song, but

this is the most

comfortable way for me...

Standard E,A,D,G tuning

Riff 1

G|------------------------------------------------------------------|

D|--------------5-7-5-----------------------------------------------|

A|-----5-6-7---------------0-2-0-2-/-5-7--------------2-0-2-/5-----|

E|------------0-------0-3------------------0--3-0-3--0--------------|

G|--------------0-2-0-----------------------------------------------|

D|------------------------------------------------------------------|

A|-----7-5-7---------------0-2-0-2-/-5-7--------------2-0-2-5------|

E|------------0-------0-3------------------0--3-0-3--0--------------|

Verse:

G|------------------------------------------------------------------|

D|------------------------------------------------------------------|

A|------------------7-7-7-5-7-7-------------------------------------|

E|-----0-0-0-0-0-0--------------5-5-5-5-5--8-8-8-8-8----------------|

Chorus:

G|------------------------------------------------------------------|

D|-------------------------------------------------4-4-5-5----------|

A|-------------------------/-10-10-10-10--5-5-5-5---------3-3-2-3-3|

E|-----0-0-0-0-0-0-0-0-0-0------------------------------------------|

Other riff:

G|---------------12-------------------------------------------------|

D|------------9-------0-2-4-5-4-2-----0-2---------------------------|

A|-------7-10-------------------------------------------------------|

E|-----0------------0-------------0-3-----0-3-0-5------------------|

Get this song at:  amazon.com sheetmusicplus.com

Share your thoughts

0 Comments found