At The Drive In

At The Drive In - Quarantined guitar tab

|------------------------------------------------|---------------|

|---------5/7-5----------------------------------|---------5/7-5-|

|-5-6-7---------------5---5-6-7------------------|-7/5-7---------|

|-------0-------0-5-7---7-------0-3P0-3--0-7/5-7-|-------0-------|

guitars 1(left, wiht distortion and probably phaser)&3(both channels but lower,

clean maybe chorus)

Em D A D

|-7---------5---------5--------5--|

|-8---------7---------5--------7--|

|-9---------7---------6--------7--|

|-9---------7---------7--------7--|

|---------------------------------|

|---------------------------------|

The effect they get it done with its delay. Also could be a good sustain and

amplitude modulation(volume pedal) to get the undulatin sound.

guitar 2(on right-just distortion n palm mute)

Em D A D

|-----------------------------------------|

|-------8---------7-----------------------|

|-------9---------7---------6---------11--|

|-------9---------7---------7---------12--|

|-5-6-7-7---5-6-7-5---5-6-7-7---------12--|

|---------------------------5--5/10~~~10--|

Dont always palm mute, figure it out listenin to it

Verse

guitar 1(on left) first time just distortion, then add chorus when band comes in

T T T T T T T T T

T

|-20-12P10--19-12P10-19-12P10-19-12P10--17-12P10/8--17-10P8--15-10P8-15-10P8-15-10P8--15-10P8/10|

|-----------------------------------------------------------------------------------------------|

|-----------------------------------------------------------------------------------------------|

|-----------------------------------------------------------------------------------------------|

|-----------------------------------------------------------------------------------------------|

|-----------------------------------------------------------------------------------------------|

guitar 2(rotten distortion on right)

Em (G) A C

|----------------------------------------------------------------------------------------|

|----8-----------------------------------------------------------------------------------|

|----9------------------------(12)------------------6------------------------9-----------|

|----9------------------------(12)------------------7------------------------10----------|

|----7------------------------(10)------------------7------------------------10----------|

|---------------------------------------------------5------------------------8-----------|

strum accordingly

bass

|-----------------------------------------|

|-----------------------------------------|

|--------7-7-7-5-7-5----------------------|

|-0-0-0----------------5-5-5-8-8-8-8-8-8--|

CHORUS:

this is guitar 2, on right, still rotten

|----------------------------------------------------------------|

|----------------------------------------------------------------|

|-14----14--12~~--14----14--12~~\11--11--11--11/12--9--9--9-9-9--|

|----------------------------------------------------------------|

|-12----12--10~~--12----12--10~~\9---9---9---9-/10--7--7--7-7-7--|

|----------------------------------------------------------------|

fast picking on the right places will mkae it sound right

guitar 1, just distorted

A G A G A G Em

|---------------------------------|

|---------------------------------|

|--6-6-4--6-6-4---6---4--0--------|

|--7-7-5--5-7-5---7---5--2--------|

|--7-7-5--5-7-5---7---5--2--------|

|--5-5-3--5-5-3---5---3--0--------|

bass

|------------------------------------------------------|

|------------------------------------------------------|

|------------------------------------------------------|

|-5-5-(3)-5-3--5-5-5-(3)-5-3--5-5-5-5-3-3-3-0-0-0------|

In the middle part, after 2nd chorus

bass solo

|----------------------------------------------------|

|---------5------------------------------------------|

|-------2----5-------5--------------7----------------|

|-0-3-5--------0-3-5---5-3-5--0-3-5-----0-5--0-3-0---|

guitar 1(with same effects as intro, but more psychotic)

|--14---------------------------------------|

|--------------15----------10------8--------|

|-------------------------------------------|

|-------------------------------------------|

|-------------------------------------------|

|-------------------------------------------|

fast picking could do well

Theres another guitar doin some feedback n then theres the piano, which mainly

plays the same

notes as guitar1

Final chorus played like verses

In the end, guitar 1 plays the verse riff without chorus (like the first time) n

then it adds

the delay until it fades out. Then comes tape played backwards, somethin like

this

|-------------------------------------------|

|-------------------------------------------|

|-------------------------------------------|

|-------------------------------------------|

|-5--2-----5--2-2-----5--2-----5-2-2--------|

|------5-2--------5-2------5-2-------5-2----|

at the drive-in forever i need sparta tabs

Get this song at:  amazon.com sheetmusicplus.com

Share your thoughts

0 Comments found