At The Drive In

At The Drive In - Quarantined bass tab

#This file is the author's own work and represents their interpretation of the-#

#song. You may only use this file for private study, scholarship, or research.-#

#---------------This file was downloaded from www.taborama.com-----------------#

At The Drive In : Quarentined

The other guy did a good job tabbin it, there

are just a few lil parts he missed on the intro

G-------------------5--7--5------------------------------------------------

D--------------------------------------------------------------------------

A--------5-6-7---------------------------5-6-7-----------------------------

E---------------0-------------0-5-6-7--0--------0-3-0-3----0--7--5---7-----

all the other shit is right

L8r

jeremy

munky837@hotmail.com

Downloaded from www.taborama.com

================================================================================

Artist: At The Drive-In

Song: Quarantined

Album: Relationship of Command

Track: #9

Tabbed by: Steve Dominick (soccersthebest@hotmail.com)

This is a great song by a great band, listen to hear the beat. I think

I've got this mostly right, but if not, let me know.

Not bad for my first tab, huh?

Key:

'/' - slide up

'\' - slide down

'h' - hammer

Intro

G|----------0h2-0----------------------------------------------

D|-------------------------------------------------------------

A|5-6-7-----------------0-2-0-2-/5-7\---------------2-0-2-/5---

E|--------0---------0-3----------------0--3-0-3-3-0------------

Riff #1

G|----------0h2-0-------------------------------------------

D|---------------------------------------------------------

A|7-5-7-----------------0-2-0-2-/5-7\---------------2-0-2-5

E|--------0---------0-3----------------0--3-0-3-3-0--------

Verse

G|-------------------------------------------------------

D|-------------------------------------------------------

A|---------------7-7-7-5-7-7-----------------3-3-3-3-3-3-

E|0--0-0-0--0-0---------------5--5-5-5--5-5--------------

Chorus

G|----------------------------------------------------------------

D|----------------------------------------------------------------

A|-------------------------/10-10\--5-5-/9-9-10-10\--3-3-3-2-3-3-3

E|0-0-0-0-0-0---0--0-0-0-0----------------------------------------

Riff #2

G|------4--12---------------------------------------------

D|--2-5-----------0-2-4---5-4-0-----0-2-------------------

A|--------------------------------------------------------

E|0-------------0---------------0h3-----0-3--0-3-0-5-\0---

order:

0:18 bass comes in w/ intro x1

Riff #1 x7

Verse x5 (1:23)

Chorus x4 (1:57)

Riff #1 x4 (2:24)

Verse x5 (2:52)

Chorus x4 (3:26)

Riff #2 x5 (3:52)

Verse x4 (4:29) until bass stops

Get this song at:  amazon.com sheetmusicplus.com

Share your thoughts

0 Comments found