Asthma Attack

Asthma Attack - Intro guitar tab

AsThMa-AtTaCk

Name:  Intro

Main Riff:

E:-----------------------------------:-----------------------------------:

B:-----------------------------------:-----------------------------------:

G:-----------------------------------:-9-9-9-x9-9-x9-xx-9-9-9-x9-9-x9-xx-:

D:-7-7-7-x7-7-x7-xx-7-7-7-x7-7-x7-xx-:-9-9-9-x9-9-x9-xx-9-9-9-x9-9-x9-xx-:

A:-7-7-7-x7-7-x7-xx-7-7-5-x5-5-x7-xx-:-7-7-7-x7-7-x7-xx-7-7-7-x7-7-x7-xx-:

E:-5-5-5-x5-5-x5-xx-5-5-5-x5-5-x5-xx-:-----------------------------------:

Ending:

E:------------------------:

B:------------------------:

G:-------x7-7-x7----------:

D:-9-9-9-x7-7-x7-7-7-7-x7-:

A:-9-9-9-x5-5-x5-7-7-7-x7-:

E:-7-7-7---------5-5-5-x5-:

Thats It

Tabbed By Russ

Get this song at:  amazon.com

Share your thoughts

0 Comments found