Anti Flag

Anti Flag - Youve Gotta Die For The Government guitar tab

tabs-database.com[http://www.tabs-database.com.com/]

Tabbed by (peterGman)

Band: Anti-flag

Album: Die For The Government (1996)

Song: You've Gotta Die For The Government

Tuning: EADGBe

INTRO:

*PICKSCRAPE* on A and D strings

e---------------------------------------------------------------------------------------------------------------

B---------------------------------------------------------------------------------------------------------------

G---6------66----------------------------------6---66--------------9----99----9---------------------------------

D---6------66-----7-----77---2----22---4444----6---66---7---77-----9----99----99--9-----------------------------

A---4------44-----7-----77---2----22---4444----4---44---7---77-----7----77----79--9-----------------------------

E-----------------5-----55---0----00---2222-------------5---55-----------------7--7-----------------------------

e------------------------------------------------------------------------------------------------------------------

B------------------------------------------------------------------------------------------------------------------

G---6------66-----------------------------------6---66------------9------------------------------------------------

D---6------66-----7-----77---2----22----4444----6---66---7777-----9------------------------------------------------

A---4------44-----7-----77---2----22----4444----4---44---7777-----7------------------------------------------------

E-----------------5-----55---0----00----2222-------------5555------------------------------------------------------

BEFORE VERSE:

e-------------------------------------------------------------------------------------------------------------------

B-------------------------------------------------------------------------------------------------------------------

G-----6-6~~~~~~------------------------------------6~~~~~~----------------------------------------------------------

D-----6-6~~~~~~------------------------------------6~~~~~~----------------------------------------------------------

A-------4~~~~~~------------------------------------4~~~~~~----------------------------------------------------------

E-------------------------------------------------------------------------------------------------------------------

LR-for 16 Seconds LR-for 16 Seconds

*PICKSCRAPE* on A and D strings again

VERSE:

e---------------------------------------------------------R--------------------------------------------------------

B---------------------------------------------------------E--------------------------------------------------------

G-----6666--6666--6666--6666--6666--6666--6666--6666------P--------------------------------------------------------

D---------------------------------------------------------E--------------------------------------------------------

A---------------------------------------------------------A--------------------------------------------------------

E---------------------------------------------------------T--------------------------------------------------------

*P.M. Throughout*

e-----------------------------------------------------R------------------------------------------------------------

B-------------------------------------------------77--E------------77----------------------------------------------

G-----6666--6666--7776--6644--6666--6666--7776--66----P----7776--66------------------------------------------------

D-----------------------------------------------------E------------------------------------------------------------

A-----------------------------------------------------A------------------------------------------------------------

E-----------------------------------------------------T------------------------------------------------------------

*P.M. Throughout*

e------------------------------------------------------------------------------------------------------------------

B------------------------------------------------------------------------------------------------------------------

G---6------6---------6------6--6--6--6--6----6666--6666------------------------------------------------------------ D---66666666---------66666666--6666--6666----6666--6666------------------------------------------------------------ A---44444444---------44444444--4444--4444----4444--4444------------------------------------------------------------ E------------------------------------------------------------------------------------------------------------------

P.M P.M. -- you should be able to get the rhythm

Chorus

e-----------------------------------------------------------------------------------------------------------------

B-----------------------------------------------------------------------------------------------------------------

G---6------66-----------------------------------6---66--------------9----99----9----------------------------------

D---6------66-----7-----77---2----22----4444----6---66---7---77-----9----99----99--9------------------------------

A---4------44-----7-----77---2----22----4444----4---44---7---77-----7----77----79--9------------------------------

E-----------------5-----55---0----00----2222-------------5---55-----------------7--7------------------------------

e-----------------------------------------------------------------------------------------------------------------

B-----------------------------------------------------------------------------------------------------------------

G---6------66-----------------------------------6---66------------------------------------------------------------

D---6------66-----7-----77---2----22----4444----6---66----7777----------------------------------------------------

A---4------44-----7-----77---2----22----4444----4---44----7777----------------------------------------------------

E-----------------5-----55---0----00----2222--------------5555----------------------------------------------------

e----------------------------------------------------------------------------------------------------------------

B----------------------------------------------------------------------------------------------------------------

G---9---99---9------6--66---------------------------6--66------------9999--9-------------------------------------

D---9---99---9999---6--66---7--77---2---22---4444---6--66----7777----9999--9999----------------------------------

A---7---77---7999---4--44---7--77---2---22---4444---4--44----7777----7777--7999----------------------------------

E-------------777-----------5--55---0---00---2222------------5555-----------777----------------------------------

INTERLUDE

e--------------------------------------------------------------------------------------------------------------------

B--------------------------------------------------------------------------------------------------------------------

G----6---6----6666---------------------6---6----6666-------------9---9-----------------------------------------------

D----6---6----6666----7---7----7777----6---6----6666----7---77---9---9-----------------------------------------------

A----4---4----4444----7---7----7777----4---4----4444----7---77---7---7-----------------------------------------------

E---------------------5---5----5555---------------------5---55-------------------------------------------------------

e------------------------------------------------------------------------------------------------------------------------

B------------------------------------------------------------------------------------------------------------------------

G----6---6----6666---------------------6---6----6666---------------------------------------------------------------------

D----6---6----6666----7---7----7777----6---6----6666---------------------------------------------------------------------

A----4---4----4444----7---7----7777----4---4----4444---------------------------------------------------------------------

E---------------------5---5----5555--------------------------------------------------------------------------------------

e------------------------------------------------------------------------------------------------------------------------

B------------------------------------------------------------------------------------------------------------------------

G------------------------------------------------------------------------------------------------------------------------

D----7-------------------7----------------7------7--------------7--------------------------------------------------------

A----7-------------------7----------------7------7--------------7--------------------------------------------------------

E----5-------------------5----------------5------5--------------5--------------------------------------------------------

e------------------------------------------------------------------------------------------------------------------

B------------------------------------------------------------------------------------------------------------------

G------------------------------------------------------------------------------------------------------------------

D----6666---------------------6666----------9999---9---------------------------------------------------------------

A----4444--7777--2222--4444---4444--7777----7777---7999------------------------------------------------------------

E----------5555--0000--2222---------5555------------777------------------------------------------------------------

*P.M. Throughout*

OUTRO

~Fade Out~

e-----------------------------------------------------------------------------------------R-------------------------

B-----------------------------------------------------------------------------------------E-------------------------

G---6------66-----------------------------------6---66--------------9----99----9----------P-------------------------

D---6------66-----7-----77---2----22----4444----6---66---7---77-----9----99----9999-------E-------------------------

A---4------44-----7-----77---2----22----4444----4---44---7---77-----7----77----7999-------A-------------------------

E-----------------5-----55---0----00----2222-------------5---55-----------------777-------T-------------------------

e-----------------------------------------------------------------------------------------R-------------------------

B-----------------------------------------------------------------------------------------E-------------------------

G---6------66-----------------------------------6---66--------------9----99----9----------P-------------------------

D---6------66-----7-----77---2----22----4444----6---66---7---77-----9----99----99--9------E-X4----------------------

A---4------44-----7-----77---2----22----4444----4---44---7---77-----7----77----79--9------A-------------------------

E-----------------5-----55---0----00----2222-------------5---55---------------- 7--7------T-------------------------

I got tired of seeing half ass tabs of this song on here, so i tabbed it out myself.

Added by tabs-database.com and our distinguished partners

Get this song at:  amazon.com sheetmusicplus.com

Share your thoughts

0 Comments found