Anti Flag

Anti Flag - 9 11 For Peace bass tab

Intro:

G|----------------------------------------|

D|----------------------------------------|

A|---------4-4-4--------------6-6-6-------|

E|-1-1-1------------4-4-4-----------------|

G|-------------------------------------------------------|

D|-------------------------------------------------------|

A|--------4-4-4-4-4-4-4-4-------------6-6-6-6------------|

E|-1-1-1--------------------4-4-4-4----------------------|

Pre-verse: X2

G|-------------------------------------------------------|

D|-------------------------------------------------------|

A|--------------4-4-4-4-4-4------------------6-6-6-6-6-6-|

E|-1-1-1-1-1-1------------------4-4-4-4-4-4--------------|

Verse: X2

G|----------------------------------------|

D|----------------------------------------|

A|---------4-4-4-----------6-6-6----------|

E|-1-1-1-----------4-4-4------------------|

Verse2: X2

G|---------------------------------------------------------------------

D|---------------------------------------------------------------------

A|----------------------------------4-4-4-4-4-4-4-4------------6-6-6-6-

E|-1-1-1-1-1-1-1-1-1-1-1-1-1-1-1-1-------------------4-4-4-4-----------

Chorus: X2 ("I dont wanna Die")

G|--------------------------------------------------------------------

D|--------------------------------------------------------------------

A|-8-8--11-11--10-10--8-8-------11-11-10-10----------6-6-4-4-3-3------

E|-------------------------9-9--------------9-9--4-4------------------

("We are all human...

")

G|----------------------------------------------------[-1st time][-2nd Time]

D|----------------------------------------------------[---------][---------]

A|-6-6-11-11-10-10-6-6-----------4-4-4-4-4------------[6-6-6-6-6][----6----]

E|---------------------1-1-1-1-1------------4-4-4-4-4-[---------][---------]

Pre-verse: X2

G|-------------------------------------------------------|

D|-------------------------------------------------------|

A|--------------4-4-4-4-4-4------------------6-6-6-6-6-6-|

E|-1-1-1-1-1-1------------------4-4-4-4-4-4--------------|

Verse: X2

G|----------------------------------------|

D|----------------------------------------|

A|---------4-4-4-----------6-6-6----------|

E|-1-1-1-----------4-4-4------------------|

Verse3: (Greed, Envy Fear, Hate...)

G|------------------------------------------------------------------------

D|------------------------------------------------------------------------

A|------------------------------4-4-4-----------6-6-6---------------------

E|-1-1-1-1-1-1---1-1-1-1-1-1-----------4-4-4------------------------------

Verse2: X2

G|------------------------------------------------------------------------

D|------------------------------------------------------------------------

A|----------------------------------4-4-4-4-4-4-4-4------------6-6-6-6----

E|-1-1-1-1-1-1-1-1-1-1-1-1-1-1-1-1-------------------4-4-4-4--------------

Chorus: X2

G|------------------------------------------------------------------------

D|------------------------------------------------------------------------

A|-8-8--11-11--10-10--8-8-------11-11-10-10----------6-6-4-4-3-3----------

E|-------------------------9-9--------------9-9--4-4----------------------

G|----------------------------------------------------[-1st time-][2nd]---

D|----------------------------------------------------[---------][---]----

A|-6-6-11-11-10-10-6-6-----------4-4-4-4-4------------[6-6-6-6-6][-6-]----

E|---------------------1-1-1-1-1------------4-4-4-4-4-[---------][---]----

Bridge:(Isn't Everybody Tired Of The Fighting...) ("Violence...")

G|-------------------X4--------------------------|------------------------

D|-----------------------------------------------|------------------------

A|------------4-4-4-4-4-----------6-6-6-6-6------|-4-4-4-4-4--------------

E|-1-1-1-1-1------------4-4-4-4-4----------------|------------------------

("Fighting...")

G|------------------------------------------------------------------------

D|------6666---------------------6666-------------------------------------

A|-4444------6666-----------4444-------6------6---4---3----1*Ring---------

E|---------------8888------------------------/Guitar-Part\----------------

Pause(Guitar Part): 20 seconds or so

Bridge Continued

G|------------------------------------------------------------------------

D|------------------------------------------------------------------------

A|------------------4-4-4-4-4-4-4-4-------------------6-6-6-6-6-6-6-6-----

E|-1-1-1-1-1-1-1-1-------------------4-4-4-4-4-4-4-4----------------------

G|------------------------------------------------------------------------

D|------------------------------------------------------------------------

A|------------------4-4-4-4-4-4-4-4-------------------6-------------------

E|-1-1-1-1-1-1-1-1-------------------4-4-4-4-4-4-4-4----------------------

Chorus: x2

G|------------------------------------------------------------------------

D|------------------------------------------------------------------------

A|-8-8--11-11--10-10--8-8-------11-11-10-10----------6-6-4-4-3-3----------

E|-------------------------9-9--------------9-9--4-4----------------------

G|------------------------------------------------------------------------

D|------------------------------------------------------------------------

A|-6-6-11-11-10-10-6-6-----------4-4-4-4-4--------------6-6-6-6-6---------

E|---------------------1-1-1-1-1------------4-4-4-4-4---------------------

Outr´┐Ż:

G|------------------------------------------------------------------------

D|------------------------------------------------------------------------

A|------------------4-----------------------------------------------------

E|-1-1-1-1-1--------------------------------------------------------------

Get this song at:  amazon.com sheetmusicplus.com

Share your thoughts

0 Comments found