Ani Difranco

Ani Difranco - Grey guitar tab

from Revelling/Reckoning

by Ani Difranco

Tuning: C#G#C#G#G#G#

OK kids, I know the tuning on this one is crazy,

but once you get there it's easy to play. You could,

alternately, tune CGCGGG and capo at the first fret.

Verse:

G#|------0-------0-------0-------0----|

G#|------0-------0-------0-------0----|

G#|------0-------0-------0-------0----|

C#|--4-------2-------0-------0--------|

G#|--4-------2-------0-------0--------|

C#|--4-------2-------0-------0--------|

Chorus:

G#|------0-------0-------0-------0----|

G#|------0-------0-------0-------0----|

G#|------0-------0-------0-------0----|

C#|--2-------4-------0-------0--------|

G#|--4-------4-------0-------0--------|

C#|----------4-------0-------0--------|

Transcribed by: Leigh Marble

Get this song at:  amazon.com sheetmusicplus.com

Share your thoughts

0 Comments found