Ani Difranco

Ani Difranco - Everest guitar tab

Everest

from Up Up Up Up Up Up

by Ani Difranco

Tuning: DADGBE

Intro and Verse:

Dadd9 Gmaj7 A6sus4

E |--------0----|---------0----|---------0---|----------0------------|

B |-7---------7-|-7----------7-|-7---------7-|-7-----------7---------|

G |----7--------|----7---------|----7--------|----7------------------|

D |-------------|--------------|-------------|-----------------------|

A |-5----5------|--------------|-------------|-----------------------|

D |-------------|-5-----5------|-7-----7-----|-7-----7---------------|

A7 D/A A7 G

E |--------------------|---------------|----------------------------|

B |-2----------3-------|--5----------0-|-0--------0-----------------|

G |---------0--------0-|---------------|-------------0--------------|

D |-2----------4-------|--5------------|----------------------------|

A |-0----------0-------|--0----0-------|----------------------------|

D |--------------------|---------------|-5-----5--------------------|

Distance shows your silhouette to be

D/F# Emin9

E |----------------|--------------2----|-2---------2----------------|

B |-3-----------0--|-----------------0-|----0-----------------------|

G |-------------0--|-------0-----------|--------------0-------------|

D |----------------|-------------------|----------------------------|

A |----------------|-------------------|----------------------------|

D |-4--------4-----|-2--------2--------|-2-----2--------------------|

A lot like mine Like a sphere

A7 D/A A7 G

E |--------------------|--------------0-----|-----------------------|

B |-2----------3-------|--5---------------0-|-0----------0----------|

G |---------0--------0-|------0-------------|---------------0-------|

D |-2----------4-------|--5-----------------|-----------------------|

A |-0----------0-------|--0------0----------|-----------------------|

D |--------------------|--------------------|-5-----5---------------|

Is a sphere and all of us here

D/F# Emin9 P

E |-----------------|------------2----|-2---------2-0---------------|

B |-3----------0----|-0-------------0-|-----------------0-----------|

G |---------------0-|-----------------|-----0-----------------------|

D |-----------------|-----------------|-----------------------------|

A |-----------------|-----------------|-----------------------------|

D |-4------4--------|-2--------2------|-2------2--------------------|

Have been here all the time

A7 P

E |-----------------|-----------------------------------------------|

B |-5----------5----|-5------------------------5-0------------------|

G |-----0---------0-|--------------0----------------0---------------|

D |-----------------|-----------------------------------------------|

A |-----------------|-----------------------------------------------|

D |-7-------7-------|-7----------------7----------------------------|

Yea, we’ve been here all the time.

Bridge: 2x

Bm7 A7 Gmaj7 A/C#

E |----------------|-------------|-------------|--------------------|

B |-10----------10-|-8------8----|-7---------7-|-5------------------|

G |----------------|-----------0-|-------------|--------------------|

D |----------------|-------------|-------------|--------------------|

A |----------------|-------------|-------------|-4------------0-----|

D |-9------9-------|-7---7-------|-5------5----|--------------------|

Taking more time than usual to choose

Transcribed by: Trinity

Get this song at:  amazon.com sheetmusicplus.com

Share your thoughts

0 Comments found