Andy Mckee

Ebon Coast Tabs



More from Andy Mckee

Andy Mckee Tabs
Andy Mckee Lyrics

Key:

  () = Natural "touch" harmonics
  x  = Muted slap on string
  v  = Muted slap on string using left hand finger
  /  = Slide up to
  H  = Hammer on to

INTRO:

B ||---------------------|---------------|---------------|--------------------|
F#||---------(12)--(12)--|------(7)--(7)-|----(7)---(7)--|------(12)----(12)--|
D ||:--------(12)--(12)--|------(7)--(7)-|----(7)---(7)--|------(12)----(12)--|
A ||:------10----10------|-----5----5----|---5-----5-----|----10------10------|
E ||---(12)--------------|--(7)----------|---------------|---0------v---------|
B ||------------x--------|---------x-----|--0----vx------|-----------x--------|

        -(The V's are there to show when to slap using left hand finger)-

B |------------------||---------------------2H3H5-----------3-----------------|
F#|-----(12)----(12)-||-------3-1-0-----3H5-------3-5-------5-------5-----5---|
D |-----(12)----(12)-||---2/4-------2/4---------------5---5---5-----7-----7---|
A |---10------10-----||-------------------------------------------7-----7---7-|
E |---------v--------||---------------------------0---------------------------|
B |-11-------x-------||-0------x---0-------x------------x-------7-----x-------|


B |-----7--------------------7------|-----7----------------------------|------|
F#|----5--7-5--------7H8--10---8----|-----------8-----------8-----8----|------|
D |---7----------7H9----------------|---9-------9-----------11----11--(A)-----|
A |---------------------------------|---10---10---10------9-----9---9--|------|
E |---------------------------------|-0--------------------------------|------|
B |-0----------x------0-----x-------|------x-----------10-----x--------|------|


B |---3--0------2H3P2-0----0---|-----------3---------------0-x0-0--|----------|
F#|---3--0--3---3-----0--3p0---|-------0H1---1-----------3---x3--3-|----------|
D |---------2------------2p0---|-----2---------2-----0H2-----x2----|----------|
A |---2---------2--------------|---2---------------0---------x0----|----------|
E |----------------------------|-0---------------2-----------------|----------|
B |-0-----x--0---------x-------|--------x--------------------^-----|----------|
							     |
          -(The section of X's followed by fret numbers is a slap
	     on the strings with the right hand that doesn't mute
			 them and lets them ring)-

B |-----------10-----------7H8-10---|-----7----------------------------|------|
F#|-------7-----10--7H8-10-------8--|-----------8-----------8-----8----|------|
D |---7H9---------------------------|---9-------9-----------11----11--(A)-----|
A |---------------------------------|---10---10---10------9-----9---9--|------|
E |---------------------------------|-0--------------------------------|------|
B |-0------x------0-----------x-----|------x-----------10-----x--------|------|


B |-7---0-----------------------|---------------------------------------0-----|
F#|--0----0H8-10------0---------|-----7----7------------7---7---------3---3---|
D |----7---------9------0-------C-----7----7------------7---7-------0------0-(C)
A |----------------10-----4-----|---5----5---5-------0--------0---4-----------|
E |-------------------------5/7-|----------------0H5---5--------3-------------|
B |-8----x----------------------|-0----x-------7----------x------------x------|


B |---------3H10-5------------------------|-----------------------------------|
F#|-------5--------8-7-5H7------7-----7---|-----------------------------------|
D |-----5-----------------------8-----8---|-----------------------------------|
A |---5-----------------------7-----7---7-|-----------------------------------|
E |-0-----------------------0-------------|-----------------------------------|
B |--------------7------x---------x-------|-----------------------------------|


B |-7---0-----------------------|---------------------------------------0-----|
F#|--0----0H8-10------0---------|-----7----7------------7---7---------3---3---|
D |----7---------9------0-------C-----7----7------------7---7-------0------0-(C)
A |----------------10-----4-----|---5----5---5-------0--------0---4-----------|
E |-------------------------5/7-|----------------0H5---5--------3-------------|
B |-8----x----------------------|-0----x-------7----------x------------x------|


B |-----------3-----||------------------------0-|------------------------------|
F#|-------0H1---1---||-------7-8---10----8-7----|----Repeat--from--------------|
D |-----2---------2-||-----8-----------0--------|------------------------------|
A |---2-------------||---7----------------------|-------||-to-||---------------|
E |-0---------------||---------10----6----------|-------||----||---------------|
B |--------x--------||-7----------------------0-|-------||----||---------------|

BRIDGE:

B |-----------------8--------------|-------------------------------------------|
F#|-------7-8--10-----10-(12)------|---2ND-ENDING------------------------------|
D |-----8---------------------(12)-|---AFTER-REPEAT----------------------------|
A |---7-----------------------(12)-|-------------------------------------------|
E |---------10---6--9---------(12)-|-------------------------------------------|
B |-7-----------------------0------|-------------------------------------------|


B |-2P0----0-------------------------|---3p2p0---0----0------------------------|
F#|-3P0-H3p0------------H5---p0-H8p0-|---3------p0-H3p0---------H5---p0-H8p0---|
D |-----H4p0-x(12)------H5---p0-H7p0-|-------------H4p0--x------H5---p0-H7p0---|
A |----------x(12)--7H9--------------|-------------------x--7H9----------------|
E |----------x(12)-------------------|-x-----------------x---------------------|
B |--H8--------------------H8--------|-x------H8-------------------H8----------|

  
B |---H5p0--H7--P0------x(12)----H10--p0-H12p0----8p7------0-------------|-----|
F#|---H5p0--H8--P0-H8p0-x(12)----H10--p0-H12p0----8-/10---p0-H8p0--x(12)-|-----|
D |----------------H7p0--------------------------------------H7p0--x(12)-|-(D)-|
A |-x------------------------------------------x-------------------x(12)-|-----|
E |-x------------------------10H12-------------x-------------------------|-----|
B |-x---------H12-------------------H12--------x-------H12---------------|-----|


B |-----------------||---3p2p0---0----0----------------------||----------------|
F#|-----H5--p0-H8p0-||---3------p0-H3p0---------H5---p0-H8p0-||----------------|
D |-----H5--p0-H7p0-||-------------H4p0--x------H5---p0-H7p0-||---x2-----------|
A |-7H9-------------||-------------------x--7H9--------------||----------------|
E |-----------------||-x-----------------x-------------------||----------------|
B |-------H10-------||-x------H8-------------------H8--------||----------------|
|

B |---H5p0--H7--P0------x(12)----H10--p0-H12p0----8p7------0-------------|-----|
F#|---H5p0--H8--P0-H8p0-x(12)----H10--p0-H12p0----8-/10---p0-H8p0--x(12)-|-----|
D |----------------H7p0--------------------------------------H7p0--x(12)-|-(D)-|
A |-x------------------------------------------x-------------------x(12)-|-----|
E |-x------------------------10H12-------------x-------------------------|-----|
B |-x---------H12-------------------H12--------x-------H12---------------|-----|


B |--------------------|-------------------------------------------------------|
F#|--------------------|-------------------------------------------------------|
D |------(7)-----(12)--|-------------------------------------------------------|
A |-9H12---------(12)--|-------------------------------------------------------|
E |--------------(12)--|-------------------------------------------------------|
B |---------/10/-------|-------------------------------------------------------|

END BRIDGE


B ||----7-5----------------0---------0-------------0---------------------------|
F#||--------H8-8----8--5/7-------0----------5----------------------------------|
D ||---7------------7--------7-----7------5-----7---/9~\-----------------------|
A ||--------------7------------7--------5-------7------------------------------|
E ||---------------------------------------------------------------------------|
B ||-0---x------7----x------8---x-----5-------7--------------------------------|

B |---/7-10-------------10-------------------------------||--------------------|
F#|---------8-----8---8----(12)---------------------(12)-||--------------------|
D |---------------7------------(12)------(12)11----------||---x2---------------|
A |-------------7----------------(12)---(12)---(12)------||--------------------|
E |------------------------------------(12)-----(12)-----||--------------------|
B |-x---------7-----x----------8-----10------------------||--------------------|

    On second time through this section play 10th fret on 4th string instead of
		the harmonic on the second string AND...

	   - - PLAY THE ENTIRE THING OVER THROUGH THE VERY BEGINNING - -

ENDING:

B ||-------------------------------------------------3-------3-----------------|
F#||-------8---------------7-----------10----------5---5-----5-----------------|
D ||-------7-----------------9---------7-----------5-------5-------------------|
A ||--------------------|9|----9----7------------5-------0---------------------|
E ||---7-----7--------|7|------------------3-0---------------------------------|
B ||-0---0-----|9|-5/7------------8--8---x-----0-------------------------------|

B |------------------------------------7--------------------------------||----||
F#|-------8---------------7------------8---------------------------(12)-||-x8-||
D |-------7-----------------9----------9---------------------------(12)-||---:||
A |--------------------|9|----9----10--10----------------|7|-------(12)-||---:||
E |---7-----7--------|7|---------0---0------|11|-|7|--------|9|---------||----||
B |-0---0-----|9|-5/7---------------------x----------5/7--------8-------||----||

Get this song at amazon.com      Ebay     Ringtones Ringtones  


Learn to play: Songwriting, Piano, Harmonica, Guitar

Related Andy Mckee Tabs

7-14 tabs
Ebon Coast tabs
Rylynn tabs
Common Ground tabs
Nakagawa-san tabs
Samus Stardrive tabs
For My Father tabs
Shanghai tabs
Nocturne tabs
When She Cries tabs
Ouray tabs
Tight Trite Night tabs
She tabs
Drifting tabs
Art Of Motion tabs
All Laid Back And Stuff tabs
Africa tabs
Heather\'s Song (intro) tabs
Keys To The Hovercar tabs
Into The Ocean tabs


Guitar Tabs









All tabs are property and copyright of their owners. All tabs provided for educational purposes only. Privacy Policy, DMCA