Andy Mckee

Africa Tabs



More from Andy Mckee

Andy Mckee Tabs
Andy Mckee Lyrics

Tuning:DAGDGD Capo 2nd fret

e|--------------------2h0-------2h0------2h0------2h0--------------play----|
B|-------------------------2h02-----2h02-----2h02------------------this----|
G|------------------4-----------------------------------------------four---|
D|--5--5--5--55--4--------------------------------------------------times--|
A|------------------4------------------------------------------------------|
E|--5--5--5--55--4---------------------------------------------------------|
                        then this is the verse:)
e|--------------------------------------------------------------------------|
B|---------------------------0----------------------------------------------|
G|--6-----------------------------------------------------4------------2----|
D|--------------9-------4h6------------------------0--2-2h0-----0-----------|
A|----6h9-9-9---9--9--6-6------------------4h6----------------------6--4-4--|
E|--7-----7-7--11----------------4---4-4---2-----2-2------0--0--0------2----|

e|----------------------------------------------0----------------------------|
B|---------------4------------------------------0----------------------------|
G|---------------------------------4-4--4-4--2--4----6-----------------------|
D|------------------------------5--5-5--5-5--4----------------------9--------|
A|-----4h2-6--------------4-----4---------------4-------9--9---9-9-----9-----|
E|--2--2---------4---4--4---7---5--5-5--5-5--4-------7--7----7-----11----11--|

e|-----------------------------------------------------------------------|
B|---------0-------------------------------------------------------------|
G|-------------------------------4-----------2-------------4-------------|
D|-------------------------0--2--2h0--0----------------------------------|
A|--11h13-------------4h6-----------------6--4--4--4----2--6--------4----|
E|--11--------4--4-4--2----2-----0----0------2-----2-2-----4----4-4---7--|

e|----------------0--------------------------------------------0--2---2h0---0--|
B|----------------0-------------------------------0----------4--------0--------|
G|----4-4-4-4--2--4----6-----------------------------------4----------0--------|
D|-5--5-5-5-5--4----------------------------4---6------------------------------|
A|-4--------------4-------9-9----9--9----9--6-6--------------------------------|
E|-5--5-5-5-5--4-------7----7--7------11------------4--4-4-4---4------5-----5--|

e|---0---------0----0-0-0-0---0-0-0---0-0-0--000----------------|
B|-4-----------0----0-0-0-0---0-0-0---0-0-0--000--------this----|
G|-------------4----4-4-4-4---4-4-4---4-4-4--444----------is----|
D|------------------0-0-0-0---0-0-0---0-0-0--000---------end----|
A|-------------4----4-4-4-4---4-4-4---4-4-4--444---------verse--|
E|-5---5-5--4---------------------------------------------------|
              into chorus. reapet verse same evrytime :)
e|------5-5-5-5---5-5-----5-5-5-5-5-5-----5-5-4-4----4-----4-4-0-0--|
B|------5-5-5-5---5-5-----5-5-5-5-5-5-----5-5-0-0----0-----0-0-0-0--|
G|-0----0-0-0-0-0-0-0-0-0-0-0-0-0-0-0-0-0-0-0-0-0----0-----0-0-0-0--|
D|-0----0-0-0-0-0-0-0-0-0-0-0-0-0-0-0-0-0-0-0------0-0-0-0-0-0-0-0--|
A|-0----------0-0-5-5-5-5-5-5-5-0-0-0-0-0-0-0------2-2-2-2----------|
E|-0h2---------------------------------------------0-0-0-0----------|
      i hope your bopping your head andy style.
e|--------5---5-5-5-5--5-5-5-5-5-5---5-5-----5-4---4---4-----4-4------------5-5-5-5--|
B|--------0h2-2-2-2-2--3-3-3-3-3-2---2-2-----2-0---5---5-----5-5------------5-5-5-5--|
G|--------0---0-0-0-0--0-0-0-0-0-0-0-0-0-0-0-0-0---0---0-0-0-0-0------------0-0-0-0--|
D|---0----0---0-0-0-0--0-0-0-0-0-0-0-0-0-0-0-0-0-0-0---0-0-0-0-0-0-0--0-----0-0-0-0--|
A|---0-----------------5-5-5-5-----0-----0-0-----2-------2-2-----2-2--0--------------|
E|---0h2-----------------------------------------0-------0-0-----0-0--0h2------------|


e|-----5--------------5-5----5-5------5-5--4-4--4------4-4--0-0---------|
B|-----5-(5)h7-5------5-5----2-2------2-2--0-0--0------0-0--0-0---------|
G|-----5--------------5-5----0-0--0-0-0-0--0-0--0--0-0-0-0--0-0---------|
D|--5--5---------5-5--5-5--0-0-0--0-0-0-0--0-0--0--0-0-0-0--0-0----0----|
A|--5--5---------5-5-------0------0-0--------------2-2-------------0----|
E|-------------------------------------------------0-0-------------0h2--|


e|-5-5-5-5---5---5---5-5-5-5-5--5-5-5-5-4-4--4-4-4-2h0--4-4-4-5-0-2-2-2--|
B|-5-5-5-5---5---5---5-5-5-5-5--5-5-5-5-0-0--0-0-0-0----0-0-0-0-0-0-0-0--|
G|-0-0-0-0-0-0---0-0-0-0-0-0-0--0-0-0-0-0-0--0-0-0-0----0-0-0-0-0-0-0-0--|
D|-0-0-0-0-0-------0---0---0-0--0-0-0-0-0-0--0-0-0-0----0-0-0-----2-2-2--|
A|---------5-------5---5---5-5--0-0-0-0---4-------------7---------x------|
E|----------------------------------------------------------------2------|


e|----0---------------------------------------------------------------------------------|
B|----0-----end-------------------------------------------------------------------------|
G|----0---------------------------------------------------------------------------------|
D|--4---------repeat--------------------------------------------------------------------|
A|--x-----------------------------------------------------------------------------------|
E|--4----------------beginning----------------------------------------------------------|

that took forever!! enjoy, it just reapeats from here. yay
| /  slide up
| \  slide down
| h  hammer-on
| p  pull-off
| ~  vibrato
| +  harmonic
| x  Mute note
Get this song at amazon.com      Ebay     Ringtones Ringtones  


Learn to play: Songwriting, Piano, Harmonica, Guitar

Related Andy Mckee Tabs

Nakagawa-san tabs
Ebon Coast tabs
Common Ground tabs
Art Of Motion tabs
Tight Trite Night tabs
All Laid Back And Stuff tabs
Keys To The Hovercar tabs
She tabs
Drifting tabs
Heather\'s Song (intro) tabs
Ouray tabs
Shanghai tabs
When She Cries tabs
Samus Stardrive tabs
Nocturne tabs
Rylynn tabs
7-14 tabs
Into The Ocean tabs
Africa tabs
For My Father tabs


Guitar Tabs









All tabs are property and copyright of their owners. All tabs provided for educational purposes only. Privacy Policy, DMCA