Anberlin

Dismantle Repair (acoustic) Tabs



More from Anberlin

Anberlin Tabs
Anberlin Chords
Anberlin Lyrics

D|-------------------------------------------------------------|
A|-------------------------------------------------------------|
F|-------0-----0-----0----0------------------------------------|
C|------5-5---5-5---5-5--5-5-----------------------------------|
G|-----3-----3-----7----7--------------------------------------|
C|----3-----3-----7----7---------------------------------------|


Pre Chorus: Play the slide the first time only!
D|----------------------------------------------------------|
A|----------------------------------------------------------|
F|----------------------------------------------------------|
C|------333355553333333------777799997779999----------------|  (2x)
G|------333333333335555------777777777777777----------------|
C|-12--333333333333333------777777777777777----------------|
--
Chorus:

Guitar 1:
D|----------------------------------------------------------|
A|--------3-------------------------------------------------|
F|-10-12--2--5----------------------------------------------|
C|-8--10--0--3----------------------------------------------|
G|-8--10--0--3----------------------------------------------|
C|-8--10--0--3----------------------------------------------|

Guitar 2:
D|----------------------------------------------------------|
A|-------13---------13-------13-----------------------------|
F|-------------------------------12h14p12-------------------|
C|-12h15------12h15----12h15--------------------------------|
G|----------------------------------------------------------|
C|----------------------------------------------------------|

Guitar 1:
D|-------------------------------------------------------------|
A|-------------------------------------------------------------|
F|----0-----0-----0----0---------------------------------------|
C|---5-5---5-5---5-5--5-5--------------------------------------|
G|--3-----3-----7----7-----------------------------------------|
C|-3-----3-----7----7------------------------------------------|

Guitar Two: 
D|---------------------------------------------------------|
A|---------------------------------------------------------|
F|---------------------------------------------------------|
C|-3--7----------------------------------------------------|
G|-3--7----------------------------------------------------|
C|-3--7----------------------------------------------------|



Guitar 1:
D|----------------------------------------------------------|
A|---------------------6--6---------------------------------|
F|--3--3--3--3---5--5--7--7---------------------------------|
C|--3--3--3--3---5--5--7--7---------------------------------|
G|--1--1--1--1---3--3--5--5---------------------------------|
C|----------------------------------------------------------|



Then back to the prechorus:

D|----------------------------------------------------------|
A|----------------------------------------------------------|
F|----------------------------------------------------------|
C|------333355553333333------777799997779999----------------|  (2x)
G|------333333333335555------777777777777777----------------|
C|-12--333333333333333------777777777777777----------------|

Then end with the chorus:

Guitar 1:
D|----------------------------------------------------------|
A|--------3-------------------------------------------------|
F|-10-12--2--5----------------------------------------------|
C|-8--10--0--3----------------------------------------------|
G|-8--10--0--3----------------------------------------------|
C|-8--10--0--3----------------------------------------------|

Guitar 2:
D|----------------------------------------------------------|
A|-------13---------13-------13-----------------------------|
F|-------------------------------12h14p12-------------------|
C|-12h15------12h15----12h15--------------------------------|
G|----------------------------------------------------------|
C|----------------------------------------------------------|
Get this song at amazon.com      Ebay     Ringtones Ringtones  


Learn to play: Songwriting, Piano, Harmonica, Guitar

Related Anberlin Tabs

Runaways Bass tabs
Foreign Language tabs
Feel Good Drag tabs
Glass To The Arson tabs
We Dreamt In Heist tabs
Haunting tabs
Autobahn tabs
Adelaide tabs
Unwinding Cable Car tabs
Dance Dance tabs
A Whisper A Clamor tabs
Godspeed Bass tabs
Days Of Our Lives tabs
Fin tabs
Reclusion Bass tabs
Paper Thin Hymn tabs
Desires tabs
Never Take Friendship Personal tabs
Inevile tabs
Stationary Stationary tabs


Guitar Tabs









All tabs are property and copyright of their owners. All tabs provided for educational purposes only. Privacy Policy, DMCA