Almost Famous

Voices Tabs



More from Almost Famous

Almost Famous Tabs

Artist: Almost Famous

Song: voices
E-Mail: artemis586@hotmail.com
Tabbed by dylan burns (guitarist of Almost Famous)


Intro:

E|-----------------------------------------------------------------
B|-----------------------------------------------------------------
G|-----------------------------------------------------------------
D|55-55555-6--77-77777-8--44-44444-5-------------------------------x1
A|55-55555-6--77-77777-8--44-44444-5-------------------------------
E|33-33333-4--55-55555-6--22-22222-3-------------------------------
      * *         * *         * *

verses

E|-----------------------------------------------------------------
B|-----------------------------------------------------------------
G|-----------------------------------------------------------------
D|555-55-5-5555---777-77-7-7777---444-44-4-4444-----
A|555-55-5-5555---777-77-7-7777---444-44-4-4444--------------------x1
E|333-33-3-3333---555-55-5-5555---222-22-2-2222--------------------
       *    * *        *    * *        *    * *
E|-----------------------------------------------------------------
B|-----------------------------------------------------------------
G|-----------------------------------------------------------------
D|55-55555-6--77-77777-8--44-44444-5-------------------------------x2
A|55-55555-6--77-77777-8--44-44444-5-------------------------------
E|33-33333-4--55-55555-6--22-22222-3-------------------------------
      * *         * *         * *



E|-----------------------------------------------------------------
B|-----------------------------------------------------------------
G|-----------------------------------------------------------------
D|555-55-5-5555---777-77-7-7777---444-44-4-4444-----
A|555-55-5-5555---777-77-7-7777---444-44-4-4444--------------------x2
E|333-33-3-3333---555-55-5-5555---222-22-2-2222--------------------
       *    * *        *    * *        *    * *




E|-----------------------------------------------------------------
B|-----------------------------------------------------------------
G|-----------------------------------------------------------------
D|55-55555-6--77-77777-8--44-44444-5-------------------------------x1
A|55-55555-6--77-77777-8--44-44444-5-------------------------------
E|33-33333-4--55-55555-6--22-22222-3-------------------------------
      * *         * *         * *

E|-----------------------------------------------------------------
B|-----------------------------------------------------------------
G|-----------------------------------------------------------------
D|555-55-5-5555---777-77-7-7777---444-44-4-4444--------------------
A|555-55-5-5555---777-77-7-7777---444-44-4-4444--------------------x2
E|333-33-3-3333---555-55-5-5555---222-22-2-2222--------------------
       *    * *        *    * *        *    * *

E|-----------------------------------------------------------------
B|-----------------------------------------------------------------
G|-----------------------------------------------------------------
D|555--77-77-77777--444-44-44444-----------------------x1
A|555--77-77-77777--444-44-44444-----------------------
E|333--55-55-55555--222-22-22222----------------------let ring

very easy but have fun and rock out!!!
Get this song at amazon.com      Ebay     Ringtones Ringtones  


Learn to play: Songwriting, Piano, Harmonica, Guitar
Also available at Muzikum: Almost Famous - Voices lyrics

Related Almost Famous Tabs

Voices tabs
Why tabs


Guitar Tabs









All tabs are property and copyright of their owners. All tabs provided for educational purposes only. Privacy Policy, DMCA