Allister

Fraggle Rawk Bass Tabs



More from Allister

Allister Tabs
Allister Chords
Allister Bass
Allister Lyrics



------------------------------------------------------------------------------
FRAGGLE RAWK - Allister (BASS)
------------------------------------------------------------------------------
Tabbed by Dave Stinnette luckyboysgeek@hotmail.com

INTRO (super intro/bass only)
G|---------------------------------------------------------------------------|
D|---------------------------------------------------------------------------|
A|---3-3-3-3p2---(x4)--------------------------------------------------------|
E|---------------------------------------------------------------------------|

INTRO/PREVERSE
G|---------------------------------------------------------------------------|
D|---------------------------------------------------------------------------|
A|--333333333-------------55555555-------------------------------------------|
E|-------------11111111-------------33333------------------------------------|

VERSE #1:
G|--- -----------------------------------------------------------------------|
D|---------------------------------------------------------------------------|
A|---3-3---------------3-3-3-3-----(x4)--------------------------------------|
E|-------1----3-3-1-1--------------------------------------------------------|

PREVERSE

VERSE #2:
G|---------------------------------------------------------------------------|
D|---------------------------------------------------------------------------|
A|---3-3----------------3-3-3-3---(x3)----3-3--------------------------------|
E|-------1----3-3-1-1-------------------------1----3~------------------------|
("We're Jonny")
PREVERSE

VERSE #3: ("PUNK RAWK!")
G|---------------------------------------------------------------------------|
D|---------------------------------------------------------------------------|
A|---3333-------------------3333-(x3)----------------------------------------|
E|----------1111---33-11-----------------------------------------------------|

G|---------------------------------------------------------------------------|
D|---------------------------------------------------------------------------|
A|---3333----------------3---------3----------------------------3------------|
E|----------1111----3--1------3--1-----3-------------------------------------| “Down on Fraggle Rock!
im 99.9% positive that this tab is correct but if you have any questions about how its
played email me at luckyboysgeek@hotmail.com

Taken from The BassMasta -- http://www.tabs-database.com



Get this song at amazon.com      Ebay     Ringtones Ringtones  


Learn to play: Songwriting, Piano, Harmonica, Guitar
Also available at Muzikum: Allister - Fraggle Rawk lyrics

Related Allister Bass Tabs

Residential Burglury bass
Moper bass
Pictures bass
The One That Got Away bass
Somewhere Down In Fullerton bass
Racecars bass
Fraggle Rock Intro bass
Friday Night bass
Jimmys Dreamgirl bass
Know It All bass
Residential Burglery bass
Matchsticks bass
Fraggle Rock bass
Fraggle Rawk bass
Freshman Girl bass
Camouflage bass
Jimmys Dream Girl bass
Radio Player bass
Westbound bass
Stuck bass


Guitar Tabs









All tabs are property and copyright of their owners. All tabs provided for educational purposes only. Privacy Policy, DMCA