Allister

Don't Think Twice Tabs



More from Allister

Allister Tabs
Allister Chords
Allister Bass
Allister Lyrics



-------------------------------------------------------------------------------
Don't Think Twice - Allister
-------------------------------------------------------------------------------

Tabbed by: Brian
Email: guitar_freak7@msn.com

Tuning: Standard Figure Out Strumming Pattern

Intro

Guitar 1
e|---------------------| X2
B|---------------------|
G|-------6---7---9-----|
D|---7---6---7---9-----|
A|---7---4---5---7-----|
E|---5-----------------|


Guitar 2 First Ending Second Ending
e|--------- ------------------------------------|
B|--3p2---- ---------------------3p2-2-2/5------|
G|-----2--- -----2-2h4/6-4----------------------|
D|---------X5-----------------------------------|
A|--------- ------------------------------------|
E|--------- ------------------------------------|

Verse

Guitar 1 & 2
e|-----------------------------------------------------------|
B|-----------------------------------------------------------|
G|-----6--7--9------6--7--9-xx-9------6--7--9------6--7--9---|
D|--7--6--7--9---7--6--7--9-xx-9---7--6--7--9---7--6--7--9---|
A|--7--4--5--7---7--4--5--7-xx-7---7--4--5--7---7--4--5--7---|
E|--5------------5-----------------5------------5------------|
pm . . . . . . . . . . . . .


Pre-Chorus

Guitar 1 & 2
e|------------| X2
B|------------|
G|--6--7--9---|
D|--6--7--9---|
A|--4--5--7---|
E|------------|


Chorus

Guitar 1 & 2
e|--------------| X2
B|--------------|
G|-----6--9--7--|
D|--7--6--9--7--|
A|--7--4--7--5--|
E|--5-----------|


Chorus Cont.

Guitar 1 & 2
e|-------------------------------|
B|---------------------------6---|
G|--------6--6--7------9--7--7---|
D|-7--7---6--6--7---7--9--7--7---|
A|-7--7---4--4--5---7--7--5--5---|
E|-5--5-------------5------------|
pm . .


Intro

Verse

Pre-Chorus

Chorus


Guitar Solo

Guitar 1 plays the Intro but the chords are palm muted before playing accented


Guitar 2

e|-------------------------------------------------------------|
B|-------2/5-2/7-5-2--------2-----2----2-----2-5-5-5-5-5-7-----|
G|-2-2-4--------------4-2-4---2h4--2h4---2h4-------------------|
D|-------------------------------------------------------------|
A|-------------------------------------------------------------|
E|-------------------------------------------------------------|

e|-------------------------5-5-5-4-5-4-5-5-5-4-5-7-7-7---------|
B|-------------------------------------------------------------|
G|-14-14-13-14-13-13-14-16-------------------------------------|
D|-------------------------------------------------------------|
A|-12-12-11-12-11-11-12-14-------------------------------------|
E|-------------------------------------------------------------|


Pre-Chours

Chorus




Thats it. If you want a punk song tabbed out email me at guitar_freak7@msn.com


Get this song at amazon.com      Ebay     Ringtones Ringtones  


Learn to play: Songwriting, Piano, Harmonica, Guitar
More Allister lyrics available at Muzikum

Related Allister Tabs

Freshman Girl tabs
Pictures tabs
Flypaper tabs
Matchsticks tabs
Fraggle Rawk tabs
Better Late Than Forever tabs
Residential Burglury tabs
None Of My Friends Are Punks tabs
Friday Night tabs
Scratch tabs
Moper tabs
Flypaper (solo) tabs
Time After Time tabs
Fraggle Rock tabs
Radio Player tabs
Don't Think Twice tabs
The One That Got Away Bass tabs
Somewhere On Fullerton tabs
Racecars tabs
Dont Think Twice tabs


Guitar Tabs









All tabs are property and copyright of their owners. All tabs provided for educational purposes only. Privacy Policy, DMCA