All American Rejects

All American Rejects - Time Stands Still guitar tab

-------------------------------------------------------------------------------

TIME STANDS STILL – All American Rejects

-------------------------------------------------------------------------------

Tabbed by:Tony

Email:fishboneul03@yahoo.com

My first tab, be kind

Tuning:standard

Intro/verses (acoustic)

e|--xx-0--0—-0x0--0--0-xx--1--1--111--1-1-|

B|--xx-1--1—-1x1--1--1-xx--1--1--111--1-1-|

G|--xx-0--0—-0x0--0--0-xx--2--2--222--2-2-|

D|--xx-2--2—-2x0--0--0-xx--2--2--222--2-2-|

A|--xx-3--3—-3x2--2--2-xx--0--0--000--0-0-|

E|--xx--------x--------xx-----------------| repeat as necessary

Chorus (Electric with distortion)

e|--------------------------------------|

B|--------------------------------------|

G|--------------------------------------|

D|--------------------------------------|

A|---10-10-xxx--7--7-xx--3--3-333--3--3-|

E|---8--8--xxx--5--5-xx--1--1-111--1--1-|

Youuuuu…..(electric with distortion)

e|----------------------------------------------|

B|----------------------------------------------|

G|----------------------------------------------|

D|-------------12--12--xx--10-10-101010-10—-10--|

A|---10-10-xxx-10—-10--xx--8—-8--8-8-8--8---8---|

E|---8--8--xxx—---------------------------------|

The way we are….(Electric with Distortion)

e|---------------------------------------------------------------------------|

B|---------------------------------------------------------------------------|

G|---------------------------------------------------------------------------|

D|--------------------555----------------------------------------------------|

A|--2-3-3--2-2-3-3-3--333----------------------------------------------------|

E|--0-1-1--0-0-1-1-1---------------------------------------------------------|

Other than the piano parts, that’s all you need, the strum pattern isn’t to hard

to figure out. Repeat the parts as many times as necessary..i’m to lazy to

figure it out myself

| / slide up

| \ slide down

| h hammer-on

| p pull-off

| ~ vibrato

| + harmonic

| x Mute note with fretting hand

===============================================================================

Get this song at:  amazon.com sheetmusicplus.com

Share your thoughts

0 Comments found