All American Rejects

All American Rejects - Night Drive guitar tab

Song: Night Drive

Artist: All-American Rejects, The

Album: Move Along

Tabber: Smithners

Tuning: StandArd

INTRO (AFTER CLAPPING INTRO)

Gt.1 (Gt.2 plays nothing)

|---------------------------------5-------------|

|-----------------------------------------------|

|-------------------5-5-xxx---------------------|

|---7-7-xxx-2-2-xxx-5-5-xxx-5-5-xx--------------|

|---7-7-xxx-2-2-xxx-3-3-----5-5-xx--------------|

|---5-5-----0-0-------------3-3-----------------|

Gt.1 and Gt.2

|-----------------------------------------------|

|-----------------------------------------------|

|---------------------5-5-555-------------------|

|---7-7-777--2-2-222--5-5-555--5-5-555----------|

|---7-7-777--2-2-222--3-3-333--5-5-555----------| x2

|---5-5-555--0-0-000-----------3-3-333----------|

VERSE

Gt.1

|----5~~~~---3~~~~---3~~5~0~~~~~~~--------------|

|--5-------5-------5----------------------------|

|-5-5-----4-5-----4-4---------------------------|

|-----------------------------------------------|

|-----------------------------------------------| x2

|-----------------------------------------------|

Gt.2 (palm mute)

|-----------------------------------------------|

|-----------------------------------------------|

|-----------------------------------------------|

|-77777777222222225555555544444444--------------|

|-77777777222222225555555544444444--------------|

|-55555555000000003333333322222222--------------|

|-----------------------------------------------|

|-----------------------------------------------|

|-----------------55555555----------------------|

|-77777777777777775555555555555555--------------|

|-77777777777777773333333355555555--------------|

|-5555555555555555--------33333333--------------|

Gt.1 (Gt.2 plays nothing)

|-------5---------------------------------------|

|-------x---------------------------------------|

|-------x---------------------------------------|

|-x-x-xxx---------------------------------------|

|-x-x-xxx---------------------------------------|

|-------x---------------------------------------|

CHORUS

Gt.1 and Gt.2

|-----------------------------------------------|

|-----------------------------------------------|

|---------------------5-5-555-------------------|

|---7-7-777--2-2-222--5-5-555--5-5-555----------|

|---7-7-777--2-2-222--3-3-333--5-5-555----------| x2

|---5-5-555--0-0-000-----------3-3-333----------|

Gt.1 (Gt.2 plays nothing)

|-----------------------------------------------|

|-----------------------------------------------|

|------------------------------55-55-5----------|

|---77-77-7--55-55-5--22-22-2--55-55-5----------|

|---77-77-7--55-55-5--22-22-2--33-33-3----------|

|---55-55-5--33-33-3--00-00-0-------------------|

VERSE

Gt.1 (CRAZY WAH EFFECT)

Gt.2 (palm mute)

|-----------------------------------------------|

|-----------------------------------------------|

|-----------------------------------------------|

|-77777777222222225555555544444444--------------|

|-77777777222222225555555544444444--------------| x2

|-55555555000000003333333322222222--------------|

|-----------------------------------------------|

|-----------------------------------------------|

|-----------------55555555----------------------|

|-77777777777777775555555555555555--------------|

|-77777777777777773333333355555555--------------| x2

|-5555555555555555--------33333333--------------|

Gt.1 and Gt.2 play nothing for 1 measure

CHORUS

Gt.1 and Gt.2

|-----------------------------------------------|

|-----------------------------------------------|

|---------------------5-5-555-------------------|

|---7-7-777--2-2-222--5-5-555--5-5-555----------|

|---7-7-777--2-2-222--3-3-333--5-5-555----------| x4

|---5-5-555--0-0-000-----------3-3-333----------|

BRIDGE

Gt.1 play nothing for 2 measures

Gt.2 play nothing for 28 measures (But do the clap thing to be cool)

Gt.1

|----5~~~~---3~~~~---3~~5~0~~~~~~~~~~~~~~~~~~~~~|

|--5-------5-------5----------------------------|

|-5-5-----4-5-----4-4---------------------------|

|-----------------------------------------------|

|-----------------------------------------------|

|-----------------------------------------------|

Gt.1 play nothing for 4 measures

Gt.1

|-----------------------------------------------|

|-----------------------------------------------|

|------------------------------55-55-5----------|

|---77-77-7--55-55-5--22-22-2--55-55-5----------|

|---77-77-7--55-55-5--22-22-2--33-33-3----------|

|---55-55-5--33-33-3--00-00-0-------------------|

Gt.1 play nothing for 4 measures, then pick slide for 2 measures

Gt.1 [palm muted]

|-----------------------------------------------|

|-----------------------------------------------|

|-------------------5-5-xxx---------------------|

|---7-7-xxx-2-2-xxx-5-5-xxx-5-5-xxx-------------|

|---7-7-xxx-2-2-xxx-3-3-----5-5-xxx-------------|

|---5-5-----0-0-------------3-3-----------------|

Gt.1 [normal]

|---------------------------------5-------------|

|-----------------------------------------------|

|-------------------5-5-xxx---------------------|

|---7-7-xxx-2-2-xxx-5-5-xxx-5-5-xx--------------|

|---7-7-xxx-2-2-xxx-3-3-----5-5-xx--------------|

|---5-5-----0-0-------------3-3-----------------|

CHORUS

Gt.1 and Gt.2

|-----------------------------------------------|

|-----------------------------------------------|

|---------------------5-5-555-------------------|

|---7-7-777--2-2-222--5-5-555--5-5-555----------|

|---7-7-777--2-2-222--3-3-333--5-5-555----------| x4

|---5-5-555--0-0-000-----------3-3-333----------|

OUTRO

Gt.1 and Gt.2

|---|

|---|

|---|

|-7-|

|-7-|

|-5-|

Get this song at:  amazon.com sheetmusicplus.com

Share your thoughts

0 Comments found