All American Rejects

All American Rejects - Im Waiting guitar tab

ALL-AMERICAN REJECTS

IM WAITING

standard tuning

EADGBe

-----------------------------------------------------------|

-----------------------------------------------------------|

-----7-7-7-----7-7-7-----7-7-7-7-7-7-7-7-7-7-7-7-7-7-7-7---|

--2--x-x-x--5--x-x-x--7--7-7-7-7-7-7-7-7-7-7-7-7-7-7-7-7---|x2

--2--5-5-5--5--5-5-5--7--5-5-5-5-5-5-5-5-4-4-4-4-4-4-4-4---|

--0---------3---------5------------------------------------|

chorus

-------------------------------------------------|

-------------------------------------------------|

---7-------7------------------------7------------|

---7-(x6)--7-(x6)--7-------9--------7-(x12)------|

---5-------4-------7-(12)--9-(x12)--5------------|

-------------------5-------7---------------------|

-----------------------------|

-----------------------------|

-----7-7-7-----7-7-7---------|

--2--x-x-x--5--x-x-x-7-------|

--2--5-5-5--5--5-5-5-7-------|

--0---------3--------5-------|

chorus

-------------------------------------------------|

-------------------------------------------------|

---7-------7------------------------7------------|

---7-(x6)--7-(x6)--7-------9--------7-(x12)------|x2

---5-------4-------7-(12)--9-(x12)--5------------|

-------------------5-------7---------------------|

after that the solo comes

peace

Get this song at:  amazon.com sheetmusicplus.com

Share your thoughts

0 Comments found