All American Rejects

All American Rejects - Dirty Little Secret guitar tab

Title – Dirty Little Secret

Artist- The All-American Rejects

Album – Move Along

Tabbed by: Larry A

Tuning: Standard

Guitar 1 – Distortion

Guitar 2 – Distortion (Capo 3rd fret)

___________________

| Intro (0:00-0:15) |

|___________________|

Guitar 1

e| |---------------------------------|---------------------------------|

B| |---------------------------------|---------------------------------|

G| |----15------15--13--13121312-----|----15------15--13--13121312-----|

D| |-----x-------x--------------13---|-----x-------x--------------13---|

A| |13)-13-(13)-13-------------------|13)-13-(13)-13-------------------|

E| |---------------------------------|---------------------------------|

|

Guitar 2 |

e| |---------------------------------|-3-3-3-3-3-3-3-3-1-1-1-1-1-1-1-1-|

B| |---------------------------------|-3-3-3-3-3-3-3-3-1-1-1-1-1-1-1-1-|

G| |---------------------------------|-0-0-0-0-0-0-0-0-0-0-0-0-0-0-0-0-|

D| |-5---x---5---x---x---------------|---------------------------------|

A| |-5---x---5---x---x---------------|---------------------------------|

E| |-3---x---3---x---x-----------13\\-|---------------------------------|

Guitar 1

e| |---------------------------------|---------------------------------|

B| |---------------------------------|---------------------------------|

G| |----15------15--13--13121312-----|----15------15--13--13121312-----|

D| |-----x-------x--------------13---|-----x-------x--------------13---|

A| |13)-13-(13)-13-------------------|13)-13-(13)-13-------------------|

E| |---------------------------------|---------------------------------|

|

Guitar 2 |

e| |-3-3-3-3-3-3-3-3-1-1-1-1-1-1-1-1-|-3-3-3-3-3-3-3-3-1-1-1-1-1-1-1-1-|

B| |-3-3-3-3-3-3-3-3-1-1-1-1-1-1-1-1-|-3-3-3-3-3-3-3-3-1-1-1-1-1-1-1-1-|

G| |-0-0-0-0-0-0-0-0-0-0-0-0-0-0-0-0-|-0-0-0-0-0-0-0-0-0-0-0-0-0-0-0-0-|

D| |---------------------------------|---------------------------------|

A| |---------------------------------|---------------------------------|

E| |---------------------------------|---------------------------------|

Guitar 1

e| |-----------------|

B| |-----------------|

G| |15--13121312-----|

D| |-x----------13---|

A| |13---------------|

E| |-----------------|

|

Guitar 2 |

e| |-1-1-1-1-1-1-1-1-|

B| |-1-1-1-1-1-1-1-1-|

G| |-0-0-0-0-0-0-0-0-|

D| |-----------------|

A| |-----------------|

E| |-----------------|

___________________

| Verse (0:15-0:28) |

|___________________|

Guitar 1

e| |---------------------------------|---------------------------------|

B| |o--------------------------------|--------------------------------o|

G| |---------------------------------|---------------------------------|

D| |-8-8-8-8-8-8-8-8-7-7-7-7-7-7-7-7-|-5-5-5-5-5-5-5-5-5-5-5-5-5-5-5-5-|

A| |o8-8-8-8-8-8-8-8-8-8-8-8-8-8-8-8-|-5-5-5-5-5-5-5-5-6-6-6-6-6-6-6-6o|

E| |-6-6-6-6-6-6-6-6-5-5-5-5-5-5-5-5-|-3-3-3-3-3-3-3-3-3-3-3-3-3-3-3-3-|

1. Let me know that I've done wrong When I've know this all along

2. I go around a time or two, just to waste my time with you

________________________

| Pre-Chorus (0:29-0:41) |

|________________________|

Guitar 2

e| |(0)-----(0-0-0)-(0)-----(0-0-0)--|(0)-----(0-0-0)-(0)-----(0-0-0)--|

B| |(1)------1-1(1)-(1)------1-1(1)--|(0)------0-0(0)-(0)------0-0(0)--|

G| |-2-------2-2(2)--2-------2-2(2)--|-0-------0-0(0)--0-------0-0(0)--|

D| |-2-------2-2(2)--2-------2-2(2)--|-2-------2-2(2)--2-------2-2(2)--|

A| |-0-------0-0(0)--0-------0-0(0)--|-2-------2-2(2)--2-------2-2(2)--|

E| |-0-------0-0(0)--0-------0-0(0)--|-0-------0-0(0)--0-------0-0(0)--|

Tell me all that you've thrown away Find out games you don't want to play

Guitar 1

e| |---------------------------------|---------------------------------|

B| |---------------------------------|---------------------------------|

G| |----15--14----------15--14-------|---------------------------------|

D| |13)---------15-(13)---------15---|---------------------------------|

A| |---------------------------------|---------------------------------|

E| |---------------------------------|---------------------------------|

You are, the only one that needs to know... |

|

Guitar 2 |

e| |(0)-----(0-0-0)-(0)-----(0-0-0)--|-x-x-x-x-x-x-x-x-x-x-x-x-x-x-x-x-|

B| |(1)------1-1(1)-(1)-----(1)1(1)--|-3-3-3-3-3-3-3-3-3-3-3-3-3-3-3-3-|

G| |-0-------0-0(0)--0-------0-0(0)--|-2-2-2-2-2-2-2-2-2-2-2-2-2-2-2-2-|

D| |-2-------2-2(2)--2-------2-2(2)--|-0-0-0-0-0-0-0-0-0-0-0-0-0-0-0-0-|

A| |-3-------3-3(3)--3-------3-3(3)--|-0-0-0-0-0-0-0-0-0-0-0-0-0-0-0-0-|

E| |-0-------0-0(0)--0-------0-0(0)--|-0-0-0-0-0-0-0-0-0-0-0-0-0-0-0-0-|

____________________

| Chorus (0:42-0:58) |

|____________________|

Guitar 1

e| |---------------------------------|---------------------------------|

B| |o--------------------------------|--------------------------------o|

G| |-----------------8-8-8-8-8-8-8-8-|---------------------------------|

D| |-8-8-8-8-8-8-8-8-8-8-8-8-8-8-8-8-|-5-5---5-5-5-5-5-3-3---3-3-3-3-3-|

A| |o8-8-8-8-8-8-8-8-6-6-6-6-6-6-6-6-|-5-5---5-5-5-5-5-3-3---3-3-3-3-3o|

E| |-6-6-6-6-6-6-6-6-----------------|-3-3---3-3-3-3-3-1-1---1-1-1-1-1-|

1. I'll keep you my dirty little secret Don't tell any |

(dirty little secret) |

2. One or you'll be just another regret Hope that you can keep that|

(just another regret) |

|

Guitar 2 (Low Volume) |

e| |-3-3-3-3-3-3-3-3-3-3-3-3-3-3-3-3-|-3-3---3-3-3-3-3-2-2---2-2-2-2-2-|

B| |o3-3-3-3-3-3-3-3-3-3-3-3-3-3-3-3-|-3-3---3-3-3-3-3-3-3---3-3-3-3-3o|

G| |-0-0-0-0-0-0-0-0-0-0-0-0-0-0-0-0-|-0-0---0-0-0-0-0-2-2---2-2-2-2-2-|

D| |-0-0-0-0-0-0-0-0-0-0-0-0-0-0-0-0-|-2-2---2-2-2-2-2-0-0---0-0-0-0-0-|

A| |o2-2-2-2-2-2-2-2-3-3-3-3-3-3-3-3-|-2-2---2-2-2-2-2-0-0---0-0-0-0-0o|

E| |-3-3-3-3-3-3-3-3-x-x-x-x-x-x-x-x-|-0-0---0-0-0-0-0-x-x---x-x-x-x-x-|

Guitar 1

e| |---------------------------------|

B| |---------------------------------|

G| |-8---8---8---8~------------------|

D| |-8---8---8---8~------------------|

A| |-6---6---6---6~------------------|

E| |---------------------------------|

A dirty little |

secret Who has to |

|

Guitar 2 |

e| |-3---3---3---3~------------------|

B| |-3---3---3---3~------------------|

G| |-0---0---0---0~------------------|

D| |-0---0---0---0~----------------5~|

A| |-2---2---2---2~----------------5~|

E| |-3---3---3---3~----------------3~|

___________________

| Verse (0:59-1:11) |

|___________________|

Guitar 1

e| |---------------------------------|---------------------------------|

B| |11111111111111111010101010101010-|1111111111111111-8-8-8-8-8-8-8-8-|

G| |10101010101010101010101010101010-|1010101010101010-8-8-8-8-8-8-8-8-|

D| |---------------------------------|---------------------------------|

A| |---------------------------------|---------------------------------|

E| |---------------------------------|---------------------------------|

* * * * * * * * * * * * * * * * * * * * * * * * * * * * * * * *

Know... When we live such fragile lives, it's the best way we survive

Guitar 1

e| |---------------------------------|---------------------------------|

B| |11111111111111111010101010101010-|1111111111111111-8-8-8-8-8-8-8-8-|

G| |10101010101010101010101010101010-|1010101010101010-8-8-8-8-8-8-8-8-|

D| |---------------------------------|---------------------------------|

A| |---------------------------------|---------------------------------|

E| |---------------------------------|---------------------------------|

* * * * * * * * * * * * * * * * * * * * * * * * * * * * * * * * |

I go around a time or two just to waste my time with you |

|

Guitar 2 |

e| |---------------------------------|---------------------------------|

B| |---------------------------------|---------------------------------|

G| |---------------------------------|---------------------------------|

D| |---------------------------------|---------------------------------|

A| |\\----------------5-5-5-5-5-5-5-5-|-----------------3-3-3-3-3-3-3-3-|

E| |\\3-3-3-3-3-3-3-3-----------------|-0-0-0-0-0-0-0-0-----------------|

* * * * * * * * * * * * * * * * * * * * * * * * * * * * * * * *

________________________

| Pre-Chorus (1:12-1:25) |

|________________________|

Guitar 2

e| |(0)-----(0-0-0)-(0)-----(0-0-0)--|(0)-----(0-0-0)-(0)-----(0-0-0)--|

B| |(1)------1-1(1)-(1)------1-1(1)--|(0)------0-0(0)-(0)------0-0(0)--|

G| |-2-------2-2(2)--2-------2-2(2)--|-0-------0-0(0)--0-------0-0(0)--|

D| |-2-------2-2(2)--2-------2-2(2)--|-2-------2-2(2)--2-------2-2(2)--|

A| |-0-------0-0(0)--0-------0-0(0)--|-2-------2-2(2)--2-------2-2(2)--|

E| |-0-------0-0(0)--0-------0-0(0)--|-0-------0-0(0)--0-------0-0(0)--|

Tell me all that you've thrown away Find out games you don't want to play

Guitar 1

e| |---------------------------------|---------------------------------|

B| |---------------------------------|---------------------------------|

G| |----15--14----------15--14-------|---------------------------------|

D| |13)---------15-(13)---------15---|---------------------------------|

A| |---------------------------------|---------------------------------|

E| |---------------------------------|---------------------------------|

You are, the only one that needs to know... |

|

Guitar 2 |

e| |(0)-----(0-0-0)-(0)-----(0-0-0)--|-x-x-x-x-x-x-x-x-x-x-x-x-x-x-x-x-|

B| |(1)------1-1(1)-(1)-----(1)1(1)--|-3-3-3-3-3-3-3-3-3-3-3-3-3-3-3-3-|

G| |-0-------0-0(0)--0-------0-0(0)--|-2-2-2-2-2-2-2-2-2-2-2-2-2-2-2-2-|

D| |-2-------2-2(2)--2-------2-2(2)--|-0-0-0-0-0-0-0-0-0-0-0-0-0-0-0-0-|

A| |-3-------3-3(3)--3-------3-3(3)--|-0-0-0-0-0-0-0-0-0-0-0-0-0-0-0-0-|

E| |-0-------0-0(0)--0-------0-0(0)--|-0-0-0-0-0-0-0-0-0-0-0-0-0-0-0-0-|

____________________

| Chorus (1:25-1:41) |

|____________________|

Guitar 1

e| |---------------------------------|---------------------------------|

B| |o--------------------------------|--------------------------------o|

G| |-----------------8-8-8-8-8-8-8-8-|---------------------------------|

D| |-8-8-8-8-8-8-8-8-8-8-8-8-8-8-8-8-|-5-5---5-5-5-5-5-3-3---3-3-3-3-3-|

A| |o8-8-8-8-8-8-8-8-6-6-6-6-6-6-6-6-|-5-5---5-5-5-5-5-3-3---3-3-3-3-3o|

E| |-6-6-6-6-6-6-6-6-----------------|-3-3---3-3-3-3-3-1-1---1-1-1-1-1-|

1. I'll keep you my dirty little secret Don't tell any |

(dirty little secret) |

2. One or you'll be just another regret Hope that you can keep that|

(just another regret) |

|

Guitar 2 (Low Volume) |

e| |-3-3-3-3-3-3-3-3-3-3-3-3-3-3-3-3-|-3-3---3-3-3-3-3-2-2---2-2-2-2-2-|

B| |o3-3-3-3-3-3-3-3-3-3-3-3-3-3-3-3-|-3-3---3-3-3-3-3-3-3---3-3-3-3-3o|

G| |-0-0-0-0-0-0-0-0-0-0-0-0-0-0-0-0-|-0-0---0-0-0-0-0-2-2---2-2-2-2-2-|

D| |-0-0-0-0-0-0-0-0-0-0-0-0-0-0-0-0-|-2-2---2-2-2-2-2-0-0---0-0-0-0-0-|

A| |o2-2-2-2-2-2-2-2-3-3-3-3-3-3-3-3-|-2-2---2-2-2-2-2-0-0---0-0-0-0-0o|

E| |-3-3-3-3-3-3-3-3-x-x-x-x-x-x-x-x-|-0-0---0-0-0-0-0-x-x---x-x-x-x-x-|

Guitar 1

e| |---------------------------------|

B| |---------------------------------|

G| |-8---8---8---8~------------------|

D| |-8---8---8---8~------------------|

A| |-6---6---6---6~------------------|

E| |---------------------------------|

A dirty little |

secret Who has to |

|

Guitar 2 |

e| |-3---3---3---3~------------------|

B| |-3---3---3---3~------------------|

G| |-0---0---0---0~------------------|

D| |-0---0---0---0~------------------|

A| |-2---2---2---2~------------------|

E| |-3---3---3---3~------------------|

____________________

| Bridge (1:42-2:01) |

|____________________|

Guitar 1

e| |---------------------------------|---------------------------------|

B| |o--------------------------------|--------------------------------o|

G| |---------------------------------|-8---8-8-8---8-x-8---8-8-8-8-8-x-|

D| |-5---5-5-5---5-x-5---5-5-5-5-5-x-|-8---8-8-8---8-x-8---8-8-8-8-8-x-|

A| |o5---5-5-5---5-x-5---5-5-5-5-5-x-|-6---6-6-6---6-x-6---6-6-6-6-6-xo|

E| |-3---3-3-3---3-x-3---3-3-3-3-3-x-|---------------------------------|

1. Know... The way she feels inside... Those thoughts I can't deny |

(Inside) (Deny)|

2. These sleeping dogs won't lie And now I try to lie |

|

Guitar 2 |

e| |---------------------------------|---------------------------------|

B| |o--------------------------------|--------------------------------o|

G| |---------------------------------|-5---5-5-5---5-x-5---5-5-5-5-5-x-|

D| |-2---2-2-2---2-x-2---2-2-2-2-2-x-|-5---5-5-5---5-x-5---5-5-5-5-5-x-|

A| |o2---2-2-2---2-x-2---2-2-2-2-2-x-|-3---3-3-3---3-x-3---3-3-3-3-3-xo|

E| |-0---0-0-0---0-x-0---0-0-0-0-0-x-|---------------------------------|

Guitar 1

e| |---------------------------------|---------------------------------|

B| |---------------------------------|----------------------------13br-|

G| |15-------------------------------|15-------------------------------|

D| |------15--------------------1213-|------15----1312----13-10/12-----|

A| |------------13--1315----15-------|---------------------------------|

E| |---------------------------------|---------------------------------|

It's eating me apart Trace this line back... |

|

Guitar 2 |

e| |---------------------------------|---------------------------------|

B| |---------------------------------|---------------------------------|

G| |-4-4-4-4-4-4-4-4-4-4-4-4-4-4-4-4-|-2-2-2-2-2-2-2-2-2-2-2-2-2-2-2-2-|

D| |-5-5-5-5-5-5-5-5-5-5-5-5-5-5-5-5-|-2-2-2-2-2-2-2-2-2-2-2-2-2-2-2-2-|

A| |-2-2-2-2-2-2-2-2-2-2-2-2-2-2-2-2-|-0-0-0-0-0-0-0-0-0-0-0-0-0-0-0-0-|

E| |---------------------------------|---------------------------------|

__________________

| Solo (2:02-2:15) |

|__________________|

Guitar 1

e| |---------------------------------|---------------------------------|

B| |---------------------------------|-----------------------------13br|

G| |----15------15--13--13121312-----|----15------15--13--131210/12----|

D| |-----x-------x--------------13---|-----x-------x-------------------|

A| |13)-13-(13)-13-------------------|13)-13-(13)-13-------------------|

E| |---------------------------------|---------------------------------|

|

Guitar 2 |

e| |---------------------------------|---------------------------------|

B| |---------------------------------|---------------------------------|

G| |---------------------------------|---------------------------------|

D| |-5-5-5-5-5-5-5-5-3-3-3-3-3-3-3-3-|-5-5-5-5-5-5-5-5-3-3-3-3-3-3-3-3-|

A| |-5-5-5-5-5-5-5-5-3-3-3-3-3-3-3-3-|-5-5-5-5-5-5-5-5-3-3-3-3-3-3-3-3-|

E| |-3-3-3-3-3-3-3-3-1-1-1-1-1-1-1-1-|-3-3-3-3-3-3-3-3-1-1-1-1-1-1-1-1-|

Guitar 1

e| |----13------13--11--11101110-----|----13------13--11--11101110-----|

B| |11------11------------------11---|11------11------------------11---|

G| |---------------------------------|---------------------------------|

D| |---------------------------------|---------------------------------|

A| |---------------------------------|---------------------------------|

E| |---------------------------------|---------------------------------|

|

Guitar 2 |

e| |---------------------------------|---------------------------------|

B| |---------------------------------|---------------------------------|

G| |---------------------------------|---------------------------------|

D| |-5-5-5-5-5-5-5-5-3-3-3-3-3-3-3-3-|-5-5-5-5-5-5-5-5-3-3-3-3-3-3-3-3-|

A| |-5-5-5-5-5-5-5-5-3-3-3-3-3-3-3-3-|-5-5-5-5-5-5-5-5-3-3-3-3-3-3-3-3-|

E| |-3-3-3-3-3-3-3-3-1-1-1-1-1-1-1-1-|-3-3-3-3-3-3-3-3-1-1-1-1-1-1-1-1-|

____________________

| Bridge (2:15-2:28) |

|____________________|

Guitar 1

e| |---------------------------------|---------------------------------|

B| |---------------------------------|---------------------------------|

G| |-----------------8-8-8-8-8-8-8-8-|-7-7-7-7-7-7-7-7-----------------|

D| |-8-8-8-8-8-8-8-8-8-8-8-8-8-8-8-8-|-8-8-8-8-8-8-8-8-7-7-7-7-7-7-7-7-|

A| |-8-8-8-8-8-8-8-8-6-6-6-6-6-6-6-6-|-5-5-5-5-5-5-5-5-8-8-8-8-8-8-8-8-|

E| |-6-6-6-6-6-6-6-6-----------------|-----------------5-5-5-5-5-5-5-5-|

I'll keep you my dirty little secret Don't tell any

(dirty little secret)

Guitar 1

e| |---------------------------------|---------------------------------|

B| |---------------------------------|---------------------------------|

G| |-----------------8-8-8-8-8-8-8-8-|----15--14----------15--14-------|

D| |-8-8-8-8-8-8-8-8-8-8-8-8-8-8-8-8-|------------15--------------15---|

A| |-8-8-8-8-8-8-8-8-6-6-6-6-6-6-6-6-|---------------------------------|

E| |-6-6-6-6-6-6-6-6-----------------|---------------------------------|

One or you'll be just another regret |

(just another regret) |

|

Guitar 2 |

e| |---------------------------------|---------------------------------|

B| |---------------------------------|---------------------------------|

G| |---------------------5-5-5-5-5-5-|---------------------2-2-2-2-2-2-|

D| |-----5-5-5-5-5-5-----5-5-5-5-5-5-|-----2-2-2-2-2-2-----2-2-2-2-2-2-|

A| |-----5-5-5-5-5-5-----3-3-3-3-3-3-|-----2-2-2-2-2-2-----0-0-0-0-0-0-|

E| |-----3-3-3-3-3-3-----------------|-----0-0-0-0-0-0-----------------|

* * * * * * * * * * * * * * * * * * * *

____________________

| Chorus (2:29-2:41) |

|____________________|

Guitar 1

e| |---------------------------------|---------------------------------|

B| |o--------------------------------|--------------------------------o|

G| |-----------------8-8-8-8-8-8-8-8-|---------------------------------|

D| |-8-8-8-8-8-8-8-8-8-8-8-8-8-8-8-8-|-5-5---5-5-5-5-5-3-3---3-3-3-3-3-|

A| |o8-8-8-8-8-8-8-8-6-6-6-6-6-6-6-6-|-5-5---5-5-5-5-5-3-3---3-3-3-3-3o|

E| |-6-6-6-6-6-6-6-6-----------------|-3-3---3-3-3-3-3-1-1---1-1-1-1-1-|

1. I'll keep you my dirty little secret Don't tell any |

(dirty little secret) |

2. One or you'll be just another regret Hope that you can keep that|

(just another regret) |

|

Guitar 2 (Low Volume) |

e| |-3-3-3-3-3-3-3-3-3-3-3-3-3-3-3-3-|-3-3---3-3-3-3-3-2-2---2-2-2-2-2-|

B| |o3-3-3-3-3-3-3-3-3-3-3-3-3-3-3-3-|-3-3---3-3-3-3-3-3-3---3-3-3-3-3o|

G| |-0-0-0-0-0-0-0-0-0-0-0-0-0-0-0-0-|-0-0---0-0-0-0-0-2-2---2-2-2-2-2-|

D| |-0-0-0-0-0-0-0-0-0-0-0-0-0-0-0-0-|-2-2---2-2-2-2-2-0-0---0-0-0-0-0-|

A| |o2-2-2-2-2-2-2-2-3-3-3-3-3-3-3-3-|-2-2---2-2-2-2-2-0-0---0-0-0-0-0o|

E| |-3-3-3-3-3-3-3-3-x-x-x-x-x-x-x-x-|-0-0---0-0-0-0-0-x-x---x-x-x-x-x-|

___________________

| Outro (2:42-3:13) |

|___________________|

Guitar 1

e| |---------------------------------|---------------------------------|

B| |---------------------------------|---------------------------------|

G| |-8-8-8-8-8-8-8-81010101010101010-|121212121212121213~--------------|

D| |-x-x-x-x-x-x-x-x-x-x-x-x-x-x-x-x-|-x-x-x-x-x-x-x-x-x---------------|

A| |-6-6-6-6-6-6-6-6-8-8-8-8-8-8-8-8-|101010101010101011~--------------|

E| |---------------------------------|---------------------------------|

A dirty little Dirty little dirty little Who has to |

secret secret secret |

|

Guitar 2 |

e| |-3-3-3-3-3-3-3-3-2-2-2-2-2-2-2-2-|-3-3-3-3-3-3-3-3-----------------|

B| |-3-3-3-3-3-3-3-3-3-3-3-3-3-3-3-3-|-3-3-3-3-3-3-3-3-----------------|

G| |-0-0-0-0-0-0-0-0-2-2-2-2-2-2-2-2-|-0-0-0-0-0-0-0-0-----------------|

D| |-2-2-2-2-2-2-2-2-0-0-0-0-0-0-0-0-|-2-2-2-2-2-2-2-2-3~--------------|

A| |-3-3-3-3-3-3-3-3-0-0-0-0-0-0-0-0-|-2-2-2-2-2-2-2-2-3~--------------|

E| |-0-0-0-0-0-0-0-0-0-0-0-0-0-0-0-0-|-0-0-0-0-0-0-0-0-1~--------------|

Guitar 1

e| |---------------------------------|---------------------------------|

B| |---------------------------------|---------------------------------|

G| |----15------15--13--13121312-----|----15------15--13--13121312-----|

D| |-----x-------x--------------13---|-----x-------x--------------15~--|

A| |13)-13-(13)-13-------------------|13)-13-(13)-13-------------------|

E| |---------------------------------|---------------------------------|

Know... Who has to know... |

|

Guitar 2 |

e| |---------------------------------|-3-3-3-3-3-3-3-3-1-1-1-1-1-1-1-1-|

B| |---------------------------------|-3-3-3-3-3-3-3-3-1-1-1-1-1-1-1-1-|

G| |---------------------------------|-0-0-0-0-0-0-0-0-0-0-0-0-0-0-0-0-|

D| |-5---x---5---x---x---------------|---------------------------------|

A| |-5---x---5---x---x---------------|---------------------------------|

E| |-3---x---3---x---x-----------13\\-|---------------------------------|

Guitar 1

e| |---------------------------------|---------------------------------|

B| |---------------------------------|---------------------------------|

G| |---------------------------------|---------------------------------|

D| |---------------------------------|---------------------------------|

A| |---------------------------------|---------------------------------|

E| |---------------------------------|---------------------------------|

|

Guitar 2 |

e| |-3-3-3-3-3-3-3-3-1-1-1-1-1-1-1-1-|-3-3-3-3-3-3-3-3-1-1-1-1-1-1-1-1-|

B| |-3-3-3-3-3-3-3-3-1-1-1-1-1-1-1-1-|-3-3-3-3-3-3-3-3-1-1-1-1-1-1-1-1-|

G| |-0-0-0-0-0-0-0-0-0-0-0-0-0-0-0-0-|-0-0-0-0-0-0-0-0-0-0-0-0-0-0-0-0-|

D| |---------------------------------|---------------------------------|

A| |---------------------------------|---------------------------------|

E| |---------------------------------|---------------------------------|

Guitar 1 (Slowly slide down)

e| |22~------------------------------|-\\-------------------------------|

B| |-x-------------------------------|---------------------------------|

G| |19~------------------------------|-\\-------------------------------|

D| |---------------------------------|---------------------------------|

A| |---------------------------------|---------------------------------|

E| |---------------------------------|---------------------------------|

|

Guitar 2 (Fade out) |

e| |-3-3-3-3-3-3-3-3-1-1-1-1-1-1-1-1-|-3-3-3-3-3-3-3-3-1-1-1-1-1-1-1-1-|

B| |-3-3-3-3-3-3-3-3-1-1-1-1-1-1-1-1-|-3-3-3-3-3-3-3-3-1-1-1-1-1-1-1-1-|

G| |-0-0-0-0-0-0-0-0-0-0-0-0-0-0-0-0-|-0-0-0-0-0-0-0-0-0-0-0-0-0-0-0-0-|

D| |---------------------------------|---------------------------------|

A| |---------------------------------|---------------------------------|

E| |---------------------------------|---------------------------------|

________

| Legend |

|________|

~ - Sustain

x - Mute

* - Palm mute

/ - Slide up

\\ - Slide down

b - Bend

r - Release bend

(0) - Ghost note

_______

| Notes |

|_______|

This is the way to play with two guitarists. This is one of the tabs that I am sure is

perfect. I based this on the live performances on TRL and Warped so I know this is correct.Added by tabs-database.com and our distinguished partners

Get this song at:  amazon.com sheetmusicplus.com

Share your thoughts

0 Comments found