All American Rejects

The Last Song Chords, Tabs



More from All American Rejects

All American Rejects Tabs
All American Rejects Chords
All American Rejects Bass
All American Rejects Lyrics

#-----------------------------PLEASE NOTE-------------------------------------#
#This OLGA file is the author's own work and represents their interpretation  #
#of the song. You may only use this file for private study, scholarship, or   #
#research. Remember to view this file in Courier, or some other monospaced    #
#font. See http://www.olga.net/faq/ for more information.                     #
#-----------------------------------------------------------------------------#



Subject: a/all-american_rejects/the_last_song.tab

Artist: The All-American Rejects
Album: The-All American Rejects
Title: The Last Song

Tabbed by Rafael Garcia
send corrections to RaffyG2000@aol.com

Hey AAR fans. Yeah, I couldn't find a good tab for this so I made
my own. I blasted this song on my headphones so I could hear the
second guitar part, which is pretty cool. Then again I'm probably
giving too much detail for most of u. Here it is

INTRO: Violins, but here it is on a guitar
Note: - This is the CD version, the radio/music video version is x1
      - ~ = let ring

E------------8-9---------------8-9--------------8-9-------    -9~---
B----9-----------9---11-9----------9---9-9----------9-----    ------
G------10----------------10----------------10-------------x 2 ------
D-11------------------------------------------------------    ------
A---------------------------------------------------------    ------
E---------------------------------------------------------    ------

VERSE PART 1: Pretty simple, mostly power chords
      - Palm mute everything until u get to the big F# chord
      - the "x"s are measures, not how many times you play the chord
      - For the second verse, the CD version repeats part 1, but the
        radio/music video version doesn't repeat
      - Also, guitar 2 doesn't play independent from 1 until the
        second verse, after u play the chorus once

Guitar 1:
  C#    A#    G#    F#   
E-------------------2-----
B-------------------2-----
G-6-----------------3-----
D-6-x4--8-----6-----4-x4--
A-4-----8-x4--6-x4--4-----
E-------6-----4-----2-----

"As I leave.." 

Guitar 2:ONLY PLAYS THIS DURING THE SECOND VERSE AFTER THE CHORUS
E-9--9-9----------------------     
B-9--9-9--x4------------------
G-------------------6-----5----
D-----------------6-----6------
A------------------------------
E---------------4-----4--------

VERSE PART 2:
Guitar 1:
      A#    F#    C#   G#  
E--------------------------------
B--------------------------------
G-----------------6-----------x2-
D-4-/-8-----4-----6-x2-6---------
A-4-/-8-x2--4-x2--4----6-x2------
E-2-/-6-----2----------4---------

"You wanted the best..."

 








Guitar 2: Does this 4 times
E----------------
B----------1-2---
G-(3)----------1-
D-----3---------- x4
A--1----4--------
E----------------

CHORUS:

E----------------------------
B----------------------------
G-6-----------4-----------(6)
D-6-x4--4-----4-x4--6-----(6)
Get this song at amazon.com      Ebay     Ringtones Ringtones  


Learn to play: Songwriting, Piano, Harmonica, Guitar

Related All American Rejects Chords

Swing Swing chords
The Last Song chords
Dance Inside chords
Dirty Little Secret Acoustic chords
It Ends Tonight chords
Move Along Acoustic chords
The Last Song Acoustic chords
Top Of The World chords
Why Worry chords
Drive Away chords
Beekeeper\'s Daughter chords
Air chords


Guitar Tabs









All tabs are property and copyright of their owners. All tabs provided for educational purposes only. Privacy Policy, DMCA