All American Rejects

Dance Inside Bass Tabs



More from All American Rejects

All American Rejects Tabs
All American Rejects Chords
All American Rejects Bass
All American Rejects Lyrics



Intro

G---------------------------------------------------------------------------|

D---------------------------------------------------------------------------|

A-11/444444444444\777-------------\777----------------------------66666666--|

E---------------------555555555555-----7777777777777777-00000000------------|



Verse 1

G-----------------------------------------------------|

D-----------------------------------------------------|

A-444444444444---------------------------666666666666-|

E--------------555555555555-000000000000--------------|



G-----------------------------------------------------------------|

D-----------------------------------------------------------------|

A-444444444444\77----------------------------------------66666666-|

E-----------------555555555555-7777777777777777-00000000----------|



Verse 2

G---------------------------------------------|

D------------------------------------------75-|

A-44-4-44-4-----------------------66-6-057----|

E------------55-5-55-5-00-0-00-0--------------|



G----------------------------------------------|

D----------------------------------------------|

A-44-4-44-4------------------------66-6-66-6---|

E------------55-5-55-5-00-0-00-0---------------|



Pre Chorus

G---------------------------------------------|

D---------------------------------------------|

A-4-4-----------------------------------------|

E------/5-5---7-7-7-7-7-7-7-7-7-7-7-7-7-7-7-7-|



No bass in first chorus



Verse 3

G--------------------------------------------------------------------|

D--------------------------------------------------------------------|

A-11/4-4-4-4-4-4-4-4---------------------------------6-6-6-6-6-6-6-6-|

E--------------------5-5-5-5-5-5-5-5-0-0-0-0-0-0-0-0-----------------|



G-----------------------------------------------------------------|

D-----------------------------------------------------------------|

A-4-4-4-4-4-4-4-4---------------------------------6-6-6-6-6-6-6-6-|

E-----------------5-5-5-5-5-5-5-5-0-0-0-0-0-0-0-0-----------------|



Pre Chorus x2



Chorus

G--------------------------------------|

D--------------------------------------|

A-44444444------------------------6666-| x3

E----------55555555-77777777-0000------|



Bridge

G-------------------------------|

D-------------------------------|

A-44444444----------------------|

E----------55555555-77777777-5~-|



G----------------------------------------------------------------------|

D----------------------------------------------------------------------|

A------------------6666666666666666-4444444444444444-------------------| x2

E-0000000000000000-----------------------------------55555555-77777777-|



G---------------------------------------------------------------------|

D---------------------------------------------------------------------|

A---------------------------------------------------------------------|

E-2222222222222222-4444444444444444-5555555555555555-0000000000000000-|



G------------------------------------------------------|

D------------------------------------------------------|

A------------------------------------------------------|

E---2-2\14-14-14---4-4\16-16-16---5-5\17-17-17----000~-|



Chorus x4



Ending

G----------------------------------|

D----------------------------------|

A-4~------------6-66--4~-----------|

E----5~-7~--0-00----------5~-7~-0~-|Added by tabs-database.com and our distinguished partners
Get this song at amazon.com      Ebay     Ringtones Ringtones  


Learn to play: Songwriting, Piano, Harmonica, Guitar

Related All American Rejects Tabs

Strait Jacket Feeling Intro tabs
One More Sad Song tabs
My Paper Heart tabs
The Last Song tabs
Swing Swing Swing tabs
Dirty Little Secret tabs
Night Drive tabs
Ferret In My Purple Shoe tabs
Top Of The World tabs
Im Waiting Bass tabs
One More Sad Song Intro tabs
Dirty Little Secret tabs
Stab My Back Bass tabs
Too Far Gone tabs
Top Of The World Solo tabs
Move Along Bass tabs
Fembot tabs
Swing Swing tabs
Bite Back tabs
Straight Jacket Feeling tabs


Guitar Tabs









All tabs are property and copyright of their owners. All tabs provided for educational purposes only. Privacy Policy, DMCA