All American Rejects

Change Your Mind Bass Tabs



More from All American Rejects

All American Rejects Tabs
All American Rejects Chords
All American Rejects Bass
All American Rejects Lyrics



Intro

G-----------------------------------------------|

D-----------------------------------------------|

A-1~--\5~--3~-----5-3-1~--\5~--3333333333333333-|

E-----------------------------------------------|



Chorus

G-----------------------------------|

D-----------------------------------|

A------------------1111111111111111-|

E-1111111111111111------------------|



G-----------------------------------|

D-----------------------------------|

A--------------33331111111111111111-|

E-111111111111----------------------|



G-------------------------------------------|

D----------------------232----232-----------|

A-5555555555555555-3333---3333---3-1~-------|

E-------------------------------------------|



G------------|

D------------|

A-1~--1~--1~-|

E------------|



Verse 1

G--------------------------------------------------------------------------|

D--------------------------------------------------------------------------|

A-3-3-3-3-----------0-0-0-0--------3-5--3-3-3-3-----------0-0-0-0----------|

E--------1-11111111--------3-33333-------------1-11111111--------3-3333333-|



Pre Chorus 2

G-------------------------------------------------------|

D-------------------------------------------------------|

A-1~--\5~-3~-----5-3-1~--\5~-3333-5555-7777-10-10-10-10-|

E-------------------------------------------------------|



Chorus x1



Bridge

G-------------------------------------|

D-------------------------------------|

A-0000-00-1-111-11-3-333-33-5-55-7-77-|

E-------------------------------------|



G----------------------------------|

D----------------------------------|

A-0000-00-1-111-11-3-333-33-5-55-7-|

E----------------------------------|



G---------------------------------------------------------------------|

D---------------------------------------------------------------------|

A---------5555555-33333333-11111111-0000000000000000-1111111111111111-|

E-1111111-------------------------------------------------------------|



G----------------------------------|

D----------------------------------|

A-----------------1111111111111111-|

E-1111111111111111-----------------|



G----------------------------------|

D----------------------------------|

A-------------33331111111111111111-|

E-111111111111---------------------|



Chorus x1



Ending

G---------------|

D---------------|

A-5-3-1~---1-3~-|

E---------------|Added by tabs-database.com and our distinguished partners
Get this song at amazon.com      Ebay     Ringtones Ringtones  


Learn to play: Songwriting, Piano, Harmonica, Guitar

Related All American Rejects Tabs

Ferret In My Purple Shoe tabs
Dirty Little Secrets tabs
Top Of The World tabs
Why Worry tabs
Doughnut In The Box tabs
Eyelash Wishes tabs
Happy Endings tabs
Last Song tabs
Dirty Little Secret tabs
Stab My Back Bass tabs
Dance Inside Bass tabs
1111 Pm Intro tabs
Im Waiting tabs
Straight Jacket Feeling tabs
One More Sad Song Intro tabs
Time Stands Still tabs
Dirty Little Secret tabs
The Cigarette Song tabs
Night Drive tabs
Night Drive tabs


Guitar Tabs









All tabs are property and copyright of their owners. All tabs provided for educational purposes only. Privacy Policy, DMCA