Alkaline Trio

Alkaline Trio - One Hundred Stories guitar tab

One Hundred Stories

intro

|-----------------------------------------------|

|-----------------------------------------------|

|---------2---------------2-2-2-2--4-4-4-4------| repeat 2x

|2-2-2-2--2---2-2-2-2-2-2-2-2-2-2--4-4-4-4------|

|2-2-2-2--0---2-2-2-2-2-2-0-0-0-0--2-2-2-2------|

|0-0-0-0------0-0-0-0-0-0-----------------------|

Verse - Palm Muted except last 2 chords

|------------------------------------------------------------------------|

|------------------------------------------------------------------------|

|---------66666666-99999999-66666666-99999999-66666666-------------------|

|22222222-66666666-99999999-66666666-99999999-66666666-77777777-99999999-| x 2

|00000000-44444444-77777777-44444444-77777777-44444444-77777777-99999999-|

|00000000----------------------------------------------55555555-77777777-|

Pre-Chorus - Palm Muted

|---------------------|-----------------------------|

|---------------------|-----------------------------|

|-6666------6666-9999-|-6666-------44444444---------|

|-6666-7777-6666-9999-|-6666-7777--44444444---------|x2,second time let the chord ring out

|-4444-7777-4444-7777-|-4444-7777--22222222---------|

|------5555-----------|------5555-------------------|

Chorus

|----------------------------------|

|----------------------------------|

|-9-9-9-9---------6-6-6-6----------|x2

|-9-9-9-9-9-9-9-9-6-6-6-6-7-7-7-7--|

|-7-7-7-7-9-9-9-9-4-4-4-4-7-7-7-7--|

|---------7-7-7-7---------5-5-5-5--|

|--------------------------------------|

|--------------------------------------|

|----------66666666--------------------|

|-66666666-66666666-77777777-99999999--|

|-66666666-44444444-77777777-99999999--|

|-44444444----------55555555-77777777--|

Palm Muted

|--------------------------------------|

|--------------------------------------|

|-----------------444444444444444------|

|6666666666666666-222222222222222------|

|6666666666666666-222222222222222------|

|4444444444444444----------------------|

Fill In

|-----------------------------------------------|

|-----------------------------------------------|

|---------2---------------2-2-2-2--4-4-4-4------| repeat 2x

|2-2-2-2--2---2-2-2-2-2-2-2-2-2-2--4-4-4-4------|

|2-2-2-2--0---2-2-2-2-2-2-0-0-0-0--2-2-2-2------|

|0-0-0-0------0-0-0-0-0-0-----------------------|

Verse - Palm Muted except last 2 chords

|------------------------------------------------------------------------|

|------------------------------------------------------------------------|

|---------66666666-99999999-66666666-99999999-66666666-------------------|

|22222222-66666666-99999999-66666666-99999999-66666666-77777777-99999999-| x 2

|00000000-44444444-77777777-44444444-77777777-44444444-77777777-99999999-|

|00000000----------------------------------------------55555555-77777777-|

Pre-Chorus - Palm Muted

|---------------------|-----------------------------|

|---------------------|-----------------------------|

|-6666------6666-9999-|-6666-------44444444---------|

|-6666-7777-6666-9999-|-6666-7777--44444444---------|x2,second time let the chord ring out

|-4444-7777-4444-7777-|-4444-7777--22222222---------|

|------5555-----------|------5555-------------------|

Chorus

|----------------------------------|

|----------------------------------|

|-9-9-9-9---------6-6-6-6----------|x2

|-9-9-9-9-9-9-9-9-6-6-6-6-7-7-7-7--|

|-7-7-7-7-9-9-9-9-4-4-4-4-7-7-7-7--|

|---------7-7-7-7---------5-5-5-5--|

|--------------------------------------|

|--------------------------------------|

|----------66666666--------------------|

|-66666666-66666666-77777777-99999999--|

|-66666666-44444444-77777777-99999999--|

|-44444444----------55555555-77777777--|

Palm Muted

|--------------------------------------|

|--------------------------------------|

|-----------------444444444444444------|

|6666666666666666-222222222222222------|

|6666666666666666-222222222222222------|

|4444444444444444----------------------|

|--------------------------------------|

|--------------------------------------|

|--------------6-----------------------|

|-2------------6-----------7-----------|x4

|-2------------4-----------7-----------|

|-0------------------------5-----------|

"Dream a good one tonight....."

Final Something...not sure if it's a chorus or what

|--------------------------------------|

|--------------------------------------|

|-99999999-666666666-------------------|

|-99999999-666666666-2-2-4-4-6-6-7-7---|x3

|-77777777-444444444-x-x-x-x-x-x-x-x---|

|--------------------0-0-2-2-4-4-5-5---|

|--------------------------------------|

|--------------------------------------|

|-99999999-666666666-------------------|

|-99999999-666666666-7-----------------|

|-77777777-444444444-7-----------------|

|--------------------5-----------------|Added by tabs-database.com and our distinguished partners

Get this song at:  amazon.com sheetmusicplus.com

Share your thoughts

0 Comments found