Alkaline Trio

Alkaline Trio - Mr Chainsaw guitar tab

Date: Tue, 10 Jul 2001 03:27:53 -0400

From: "j bro"

Subject: a/alkaline_trio/mr_chainsaw.crd

sorry for that empty e-mail... here's the tab

Author/Artist: Alkaline Trio

Title: Mr. Chainsaw

Album: From Here To Infirmary

Transcribed by: Jim Taone

Email: j_bro124@hotmail.com

Another song off "Infirmary" and I love playing this song

I think it's a stand-out track on the album... but you

probably don't care what I think... so... I hope you enjoy

it as much as I do... jim

Intro/Verse

---------------------------------------------------------|

-2-2-2-2-2-3-3-3-2-2---7-7-7-7-7-7-7-7-------------------|

-2-2-2-2-2-2-2-2-2-2---7-7-7-7-7-7-7-7-------------------| 2x

-2-2-2-2-2-2-2-2-2-2---5-5-5-5-4/5-5-5-------------------|

-0-0-0-0-0-0-0-0-0-0-------------------------------------|

---------------------------------------------------------|

---------------------------------------------------------|

---------------------------------------------------------|

--11-11-11-11-11--9-9-9-9-9--7-7-7-7-7-7-7-7-7-7-7--9----|

--11-11-11-11-11--9-9-9-9-9--7-7-7-7-7-7-7-7-7-7-7--9----|

--9--9--9--9--9---7-7-7-7-7--4/5-5-5-4/5-5-5-4/5-5--7----|

---------------------------------------------------------|

Chorus

---------------------------------------------------------|

---------------------------------------------------------|

--2-------------------------7-7-7-7-7--9-9-9-9-9---------| 2x

--2----------2--------4-----7-7-7-7-7--9-9-9-9-9---------|

--0----------2--------4-----5-5-5-5-5--7-7-7-7-7---------|

-------------0--------2----------------------------------|

Outro

---------------------------------------------------------|

---------------------------------------------------------|

--2-2-2-2-2-2--7-7-7-7-7-7--9-9-9-9-9-9------------------| 4x

--2-2-2-2-2-2--7-7-7-7-7-7--9-9-9-9-9-9------------------|

--0-0-0-0-0-0--5-5-5-5-5-5--7-7-7-7-7-7------------------|

---------------------------------------------------------|

Songflow:

Intro

Verse 2x

Chorus

Verse 2x

Chorus

Outro

Questions, comments, corrections... e-mail me at j_bro124@hotmail.com

Get this song at:  amazon.com sheetmusicplus.com

Share your thoughts

0 Comments found