Alkaline Trio

Alkaline Trio - Maybee Ill Catch Fire guitar tab

-----------------------------------------------------------------------

Maybe I'LL Catch Fire - ALKALINE TRIO

-----------------------------------------------------------------------

INTRO:

e|---------------------------------------------------------------------|

B|---------------------------------------------------------------------|

G|-5-5-5-5-5-5-5-5-----------------------------------------------------|

D|-5-5-5-5-5-5-5-5--5-5-5-5-5-5-5-5--7-7-7-7-7-7-7-7--5-5-5-5-5-5-5-5--|

A|-3-3-3-3-3-3-3-3--5-5-5-5-5-5-5-5--7-7-7-7-7-7-7-7--5-5-5-5-5-5-5-5--|

E|------------------3-3-3-3-3-3-3-3--5-5-5-5-5-5-5-5--3-3-3-3-3-3-3-3--|

e|---------------------------------------------------------------------|

B|---------------------------------------------------------------------|

G|---------10-10-10-10-------------------------------------------------|

D|-3-3-3-3--x--x--x--x-------------------------------------------------|

A|-3-3-3-3--8--8--8--8-------------------------------------------------|

E|-1-1-1-1-------------------------------------------------------------|

VERSE: Clean

e|---------------------------------------------------------------------|

B|---------------------------------------------------------------------|

G|-10-10-10-10-10-10-10-10--9-9-9-9-9-9-9-9----------------------------|

D|-10-10-10-10-10-10-10-10--9-9-9-9-9-9-9-9----------------------------|

A|-8--8--8--8--8--8--8--8---7-7-7-7-7-7-7-7----------------------------|

E|---------------------------------------------------------------------|

PM.......................................

"And Maybe I'll Catch Fire ", Chorus

e|---------------------------------------------------------------------|

B|---------------------------------------------------------------------|

G|-5-5-5-5-5-5-5-5-----------------------------------------------------|

D|-5-5-5-5-5-5-5-5--5-5-5-5-5-5-5-5--7-7-7-7-7-7-7-7--5-5-5-5-5-5-5-5--|

A|-3-3-3-3-3-3-3-3--5-5-5-5-5-5-5-5--7-7-7-7-7-7-7-7--5-5-5-5-5-5-5-5--|

E|------------------3-3-3-3-3-3-3-3--5-5-5-5-5-5-5-5--3-3-3-3-3-3-3-3--|

e|---------------------------------------------------------------------|

B|---------------------------------------------------------------------|

G|--------------10-10-10-10-10-10--5-5-5-5-5-5-5-5--9-9-9-9--10-10-10--|

D|-3-3-3-3-3-3--x--x--x--x--x--x---5-5-5-5-5-5-5-5--x-x-x-x--x--x--x---|

A|-3-3-3-3-3-3--8--8--8--8--8--8---3-3-3-3-3-3-3-3--7-7-7-7--8--8--8---|

E|-1-1-1-1-1-1---------------------------------------------------------|

B|---------------------------------------------------------------------|

G|-9-9-9---------------------------------------------------------------|

D|-x-x-x--7-7-7-7-7-7-7-7--5-5-5-5-5-5-5-5-----------------------------|

A|-7-7-7--7-7-7-7-7-7-7-7--5-5-5-5-5-5-5-5-----------------------------|

E|--------5-5-5-5-5-5-5-5--3-3-3-3-3-3-3-3-----------------------------|

BRIDGE:

e|---------------------------------------------------------------------|

B|---------------------------------------------------------------------|

G|-9-9-9-9-9-9---------------5-5-5-5-5-5--7-7-7-7-7-7------------------|

D|-9-9-9-9-9-9--2-2-2-2-2-2--5-5-5-5-5-5--7-7-7-7-7-7------------------|

A|-7-7-7-7-7-7--2-2-2-2-2-2--3-3-3-3-3-3--5-5-5-5-5-5------------------|

E|--------------0-0-0-0-0-0--------------------------------------------|

e|---------------------------------------------------------------------|

B|---------------------------------------------------------------------|

G|-9-9-9-9-9-9--9-9-9-9-9-9--5-5-5-5-5-5-------------------------------|

D|-9-9-9-9-9-9--x-x-x-x-x-x--5-5-5-5-5-5--5-5-5-5-5-5------------------|

A|-7-7-7-7-7-7--7-7-7-7-7-7--3-3-3-3-3-3--5-5-5-5-5-5------------------|

E|----------------------------------------3-3-3-3-3-3------------------|

END:

e|---------------------------------------------------------------------|

B|---------------------------------------------------------------------|

G|-----------------------------------10-10-10-10-10-9-7-5--5-----------|

D|-7-7-7-7-7-7-7-7--5-5-5-5-5-5-5-5--x--x--x--x--x--x-x-x--5-----------|

A|-7-7-7-7-7-7-7-7--5-5-5-5-5-5-5-5--8--8--8--8--8--7-5-3--3-----------|

E|-5-5-5-5-5-5-5-5--3-3-3-3-3-3-3-3------------------------------------|

INTRO 1x

VERSE 4x

CHORUS 1x

VERSE 4x

CHORUS 1x

BRIDGE 2x

CHORUS 1x

ENDING 1x

Get this song at:  amazon.com sheetmusicplus.com

Share your thoughts

0 Comments found