Alkaline Trio

Alkaline Trio - All On Black guitar tab

Author/Artist: Alkaline Trio

Title: All On Black

Album: Good Mourning

Transcribed by: Jim Taone

Email: j_bro124@hotmail.com

Play along w/ cd to find the rythm.

enjoy,

jim

Intro:

--------------------------------------------------------------|

--------------------------------------------------------------|

-------------------------------------------10-10-10-10-10-10--|

-14-14-14--12-12--10-10-10--9\-/7-7--9-9---10-10-10-10-10-10--|

-0--0--0---0--0---0--0--0---0---0-0--0-0---8--8--8--8--8--8---|

--------------------------------------------------------------|

Verse:

----------------------|---------------------------------|

----------------------|---------------------------------|

------------10--------|---------------10---------12-----|

-7----------10--------|----7----------10---------12-----|

-7----------8---------|----7----------8----------10-----|

-5----------8---------|----5----------8----------10-----|

Pre-Chorus:

---------------------|------------------------------|

---------------------|------------------------------|

---------------------|------------------------------|

-3----------5--------|---3--------5-5-5-5-5-5-5-----|

-3----------5--------|---3--------5-5-5-5-5-5-5-----|

-1----------3--------|---1--------3-3-3-3-3-3-3-----|

Chorus:

------------------------------------------------|

------------------------------------------------|

-12-12-12-12-12-12--10-10-10---9--9--9--9--9----|

-10-10-10-10-10-10--10-10-10--10-10-10-10-10----|

------------------------------------------------|

------------------------------------------------|

-------------------------------------|

-------------------------------------|

-10-10-10-10-10---12-12-12-12-12-----|

-10-10-10-10-10---12-12-12-12-12-----|

-8--8--8--8--8----10-10-10-10-10-----|

-------------------------------------|

Bridge:

-------------------------------------------------------------|

-------------------------------------------------------------|

-5-5-5-5-5-5-------------------------------------------------|

-5-5-5-5-5-5--3-3-3-3-3-3--7-7-7-7-7--5-5-5-5-5--3-3-3-3-3---|

-3-3-3-3-3-3--3-3-3-3-3-3--7-7-7-7-7--5-5-5-5-5--3-3-3-3-3---|

--------------1-1-1-1-1-1--5-5-5-5-5--3-3-3-3-3--1-1-1-1-1---|

Outro:

-------------------------------------------------|

-------------------------------------------------|

-12-12-12--10-10-10---9--9--9--9--9-10-10--9--9--|

-10-10-10--10-10-10--10-10-10-10-10-10-10-10-10--|

-------------------------------------------------|

-------------------------------------------------|

Songflow:

Intro 2x

Verse 2x

Intro 2x

Verse: (palm muted) 2x

Pre Chorus

Chorus 4x

Intro 2x

Verse 2x

Pre Chorus

Chorus 4x

Bridge 2x

Outro 6x

Intro Variation

Questions, comments, corrections... e-mail me at j_bro124@hotmail.com

Get this song at:  amazon.com sheetmusicplus.com

Share your thoughts

0 Comments found