Alkaline Trio

We Ve Had Enough Bass Tabs



More from Alkaline Trio

Alkaline Trio Tabs
Alkaline Trio Chords
Alkaline Trio Bass
Alkaline Trio Lyrics



Intro:
G|----------------------------------------------------------------------------------------|
D|----------------------------------------------------------------------------------------|
A|----------------------------------------------------------------------------------------|
E|222222222222222222---------------------------------------------------------|

Verses:(listen to the song for the rhythm)
G|------------------------------------------------------------------------------------------|
D|------------------------------------------------------------------------------------------|
A|------------------------------------------------------------------------------------------|
E|2-2--2-2-2--2-2-2--2-2-2-0-0-(2 times, then)-------------------------------|

Verses continued:
G|-----------------------------------------------------------------------------------------------|
D|-----------------------------------------------------------------------------------------------|
A|-------------------------------------------2-2--2-2-2--2-5-5--5-5-5--5----------------|
E|5-5--5-5-5--5-5-5--5-5-5-2-2---------------------------------------------------------|

Chorus:
G|-------------------------------------------------------------------------------------------------------|
D|-------------------------------------------------------------------------------------------------------|
A|----------------------------------------------------55555555-------------------------------------|
E|5555555555555555---22222222-----------------------------------------------------------|

Bridge(slower part):
G|--------------------------------------------------------------------------------------------|
D|--------------------------------------------------------------------------------------------|
A|-----5~---------7~----------5~----77777777777777----------------------------|
E|5~---------5~---------5~--------------------------------------------------------------|

After the bridge you play the chorus until the outro which is this:
G|--------------------------------------------------------------------------------------|
D|--------------------------------------------------------------------------------------|
A|--------------------------------------------------------------------------------------|
E|222222222222--5~-----------------------------------------------------------|

I think the tab is at least 95% correct if not 100%. The trick is getting the timing
down for the verses. It isn't that hard if you listen to the song.
Send me corrections or comments, but make sure you specify which part you think is wrong
and why.

_________________________________________________________________
Help STOP SPAM with the new MSN 8 and get 2 months FREE* http://join.msn.com/?page=features/junkmail
Tabbed by: Dave Lutz (DaveEatWorld@hotmail.com)

~ - let note ring

Intro:
G|---------------------------------------------------------------------------|
D|---------------------------------------------------------------------------|
A|---------------------------------------------------------------------------|
E|222222222222222222---------------------------------------------------------|

Verses:(listen to the song for the rhythm)
G|---------------------------------------------------------------------------|
D|---------------------------------------------------------------------------|
A|---------------------------------------------------------------------------|
E|2-2--2-2-2--2-2-2--2-2-2-0-0-(2 times, then)-------------------------------|

Verses continued:
G|---------------------------------------------------------------------------|
D|---------------------------------------------------------------------------|
A|--------------------------------2-2--2-2-2--2-5-5--5-5-5--5----------------|
E|5-5--5-5-5--5-5-5--5-5-5-2-2-----------------------------------------------|

Chorus:
G|---------------------------------------------------------------------------|
D|---------------------------------------------------------------------------|
A|------------------------------55555555-------------------------------------|
E|5555555555555555--22222222-------------------------------------------------|

Bridge(slower part):
G|---------------------------------------------------------------------------|
D|---------------------------------------------------------------------------|
A|-----5~---------7~----------5~----77777777777777---------------------------|
E|5~---------5~---------5~---------------------------------------------------|

After the bridge you play the chorus until the outro which is this:
G|---------------------------------------------------------------------------|
D|---------------------------------------------------------------------------|
A|---------------------------------------------------------------------------|
E|222222222222--5~-----------------------------------------------------------|

=====================================================================================

Lyrics:

in the shadows where the heads hang low
you hear voices as the wind blows
asking "can't you see?"
reminding you to breathe
it's only time
before it catches up
to you and all your broken luck
i found a better way
to get even with my memory

in the darkness where the angels cry
"give us water, give us back our eyes
our beds this concrete floor
and it's all we have left to live for
a day we'll never face we're only
second handed sick and lonely
fighting back the tears
and every urge to van gogh both our ears"

that said we've had enough
please turn that ***ing radio off
ain't nothing on the air waving the despair we feel
NO!

in the shadows where the heads hang low
you hear voices as the wind blows
asking "can't you see?"
reminding you to breathe
it's only time
before it catches up
to you and all your broken luck
i found a better way
to get even with my enemies

that said we've had enough
please turn that ***ing radio off
ain't nothing on the air waving the despair we feel
that said we've had enough
put "walk among us" on and turn it up
ain't nothing on the air waving the hatred we feel
NO!

this is our biggest fear
only tunes that we hear
come via antenna
through your car raid-ee-uh-oh-oh-no

that said we've had enough

Taken from The BassMasta -- http://www.tabs-database.com



Get this song at amazon.com      Ebay     Ringtones Ringtones  


Learn to play: Songwriting, Piano, Harmonica, Guitar
More Alkaline Trio lyrics available at Muzikum

Related Alkaline Trio Bass Tabs

The Poison bass
Mercey Me bass
Fuck You Aurora bass
F**k You Aurora bass
F*ck You Auoura bass
Metro bass
Sorry About That bass
The Metro bass
Sadie bass
Steamer Trunk bass
Jaked On Green Beer bass
Your Neck bass
I Lied My Face Off bass
All On Black bass
Cop bass
This Is Getting Over You bass
Snake Oil Tankers bass
Take Lots With Alcohol bass
Radio Perfect bass
Old School Reasons bass


Guitar Tabs









All tabs are property and copyright of their owners. All tabs provided for educational purposes only. Privacy Policy, DMCA