Alkaline Trio

We've Had Enough Tabs



More from Alkaline Trio

Alkaline Trio Tabs
Alkaline Trio Chords
Alkaline Trio Bass
Alkaline Trio Lyrics



Song: We've Had Enough
Artist: Alkaline Trio
Album: Good Mourning
Transcribed by: Unknown
Submitted by: Alicia (famous_az@hotmail.com)

I take no credit for this tab. It is 100% correct, well close enough. Enjoy !

Intro
e|--------------------------------------------|
B|--------------------------------------------|
G|--------------------------------------------|
D|--------------------------------------------|
A|------------777777-----------444444-------|
E|--2200220022--------2200220022--------------|

e|--------------------------------------------|
B|--------------------------------------------|
G|--------------------------------------------|
D|--------------------------------------------|
A|------------222222-------------------------|
E|--2200220022--------2244554477554400--------|

Verse 1+2 (x2)
e|--------------------------------------------|
B|--------------------------------------------|
G|--------------------------------------------|
D|--------------------------------------------|
A|--44-444-444-44222---44-444-444-44222-------|
E|--22-222-222-22000---22-222-222-22000-------|

e|--------------------------------------------------|
B|--------------------------------------------------|
G|--------------------------------------------------|
D|------------------------------1212121211111111----|
A|--77-777-777-77222---99-999-9---------------------|
E|--55-555-555-55000---77-777-7-101010109 9 9 9-----|

Interlude 1
e|--------------------------------------------|
B|--------------------------------------------|
G|--------------------------------------------|
D|--------------------------------------------|
A|------------222222-------------------------|
E|--2200220022--------2244554477554400--------|

Chorus x2
e|--------------------------------------------|
B|--------------------------------------------|
G|--------------------------------------------|
D|----------------------------77777777--------|
A|--7777777777777777-44444444-55555555--------|
E|--5555555555555555-22222222-----------------|

Interlude 2
Guitar 1
e|--------------------------------------------|
B|--------------------------------------------|
G|--------------------------------------------|
D|--------------------------------------------|
A|--44224422442-4^54-2---44334433443-4^54-2---|
E|--22002200220-2^32-0---22002200220-2^32-0---|

Guitar 2
e|--------------------------------------------|
B|--------------------------------------------|
G|--------------------------------------------|
D|--44224422442-4^54-2---44224422442-4^54-2-4-|
A|--------------------------------------------|
E|--------------------------------------------|

Verse 3
No guitar until last time round before chorus, then play
e|--------------------------------------------------|
B|--------------------------------------------------|
G|--------------------------------------------------|
D|------------------------------1212121211111111----|
A|--7------------------99999999---------------------|
E|--5------------------77777777-101010109 9 9 9-----|

Final Chorus
e|--------------------------------------------------|
B|--------------------------------------------------|
G|--------------------------------------------------|
D|-------7---------9---------7----9999999999999999--| x2
A|--7----5----7----7----7----5----7777777777777777--|
E|--5---------5---------5---------------------------|

e|------------------------------------------------------|
B|------------------------------------------------------|
G|--14141414141414141414141414141414-99999999-66667777--|
D|------------------------------------------------------| x4
A|--12121212121212121212121212121212-77777777-44445555--|
E|------------------------------------------------------|

e|--------------------------------------------|
B|--------------------------------------------|
G|--------------------------------------------|
D|--------------------------------------------|
A|-----------------------4--------------------|
E|--2244554477554400-----2--------------------|

Order:
Intro
Verse 1
Interlude 1
Verse 2
Chorus
Interlude 2
Verse 3
Chorus
Final Chorus


Get this song at amazon.com      Ebay     Ringtones Ringtones  


Learn to play: Songwriting, Piano, Harmonica, Guitar
More Alkaline Trio lyrics available at Muzikum

Related Alkaline Trio Tabs

Rooftops tabs
Burn tabs
Rooftops Bass tabs
You Aurora tabs
Good Bye Forever tabs
Good Mourning tabs
Fatally Yours tabs
Trucks And Trains tabs
Remains tabs
Over At The Frankenstein Place tabs
Armagedon tabs
Standard Break From Life tabs
Cringe tabs
If You Had A Bad Time tabs
Dead End Road tabs
The Poison tabs
My Friend Peter tabs
Snake Oil Tanker tabs
Blue Carolina tabs
Take Lots With Alcohol tabs


Guitar Tabs









All tabs are property and copyright of their owners. All tabs provided for educational purposes only. Privacy Policy, DMCA