Alkaline Trio

This Is Getting Over You Tabs



More from Alkaline Trio

Alkaline Trio Tabs
Alkaline Trio Chords
Alkaline Trio Bass
Alkaline Trio Lyrics



===========================================================
ALKALINE TRIO - THIS IS GETTING OVER YOU
===========================================================
INTRO
|------- --------------|
|------- --------------|
|-777xx-x12-777777777777-|
|-777xx- -777777777777-|
|-555xx- -555555555555-|
|------- --------------|

===========================================================
RIFF X2
|---------------------------------------------------------|
|---------------------------------------------------------|
|-777xx-777xx-777xx-777xx-111111xx-111111xx-66666-999-777-|
|-777xx-777xx-777xx-777xx-111111xx-111111xx-66666-999-777-|
|-555xx-555xx-555xx-555xx--9-9-9xx--9-9-9xx-44444-777-555-|
|---------------------------------------------------------|

===========================================================
VERSE 1
|--------------------------------------|
|--------------------------------------|
|-7~------------------------7---------|
|-7~------4h5-7-5-4-5-4-2h4-7---------|
|-5~------------------------5---------|
|--------------------------------------|

===========================================================
VERSE 2 X2
|---------------------------------------------------------|
|---------------------------------------------------------|
|---------------------------------------------------------|
|-77777777777777777777777-1111111111111111-666666-999-777-|
|-55555555555555555555555--9-9-9-9-9-9-9-9-444444-777-555-|
|---------------------------------------------------------|

===========================================================
CHORUS
|---------------------------------|
|---------------------------------|
|----------77777777777------------|
|-5-4------77777777777-7777777777-|
|-----7-4--55555555555-7777777777-|
|----------------------5555555555-|

===========================================================



BRIDGE
|-------------------|
|-------------------|
|-------------------|
|-5-4---------------|
|-----7-5-4-5-4-2-0-|
|-------------------|

===========================================================
OUTRO
|---------------------------------------------| |---|
|---------------------------------------------| |---|
|-77777777777-6666666666-44444444444444444466-|X4|-2-|
|-77777777777-6666666666-44444444444444444466-| |-2-|
|-55555555555-4444444444-22222222222222222244-| |-0-|
|---------------------------------------------| |---|

===========================================================
OUTRO 2
|---------------------------------------------------------|
|---------------------------------------------------------|
|--------------------------7--------6--------4------------|
|---------------2----------x--------x--------x-----777777-|
|-5p4---3p2---2p0----4/5---5--54---4--32---2/4/5-000000-|
|---------------------------------------------------------|

===========================================================
OUTRO 3 X4
|--------------------------------------------------------|
|--------------------------------------------------------|
|-7777777777777-6666666666666-444444444444-2222222222222-|
|-7777777777777-6666666666666-444444444444-2222222222222-|
|-5555555555555-4444444444444-222222222222-0000000000000-|
|--------------------------------------------------------|

===========================================================
INTRO
RIFF
VERSE 1
VERSE 2
CHORUS
VERSE 1
VERSE 2
CHORUS
BRIDGE
OUTRO 1

OUTRO 2
OUTRO 3
END ON D5
===========================================================


Get this song at amazon.com      Ebay     Ringtones Ringtones  


Learn to play: Songwriting, Piano, Harmonica, Guitar
Also available at Muzikum: Alkaline Trio - This Is Getting Over You lyrics

Related Alkaline Trio Tabs

Ninety Seven tabs
Radio (with The Order) tabs
Burn tabs
Bleeder tabs
Mr Chainsaw Bass tabs
Tuck Me In tabs
Rooftops Bass tabs
Trucks And Trains tabs
Stupid Kid Intro tabs
Weve Had Enough With Order tabs
My Friend Peter tabs
While Youre Waiting tabs
I Lied My Face Off Bass tabs
Poison tabs
Blue In The Face Bass tabs
This Is Getting Over You Intro tabs
Cop tabs
Cringe tabs
Song For Julie tabs
If You Had A Bad Time tabs


Guitar Tabs









All tabs are property and copyright of their owners. All tabs provided for educational purposes only. Privacy Policy, DMCA