Alkaline Trio

This Is Getting Over You Bass Tabs



More from Alkaline Trio

Alkaline Trio Tabs
Alkaline Trio Chords
Alkaline Trio Bass
Alkaline Trio Lyrics



Another song from the Alkaline Trio achieves

G----------------------------------
D------7777-5555------777777777777-
A-5555-----------5555--------------
E----------------------------------

G-----------------------------------------------777----
D----777-----------777-----------444---444---------777-
A-555---555-000-555---555-000--------------------------
E-----------------------------222---222---555555-------

"Today I woke up..."
G---------------------------------------------------
D---------------------------------------------------
A-555555555555555555555555--------------------------
E-------------------------222222222222 555555555555-

"Drowning girls is a game I play."
G----------------------------------------
D----------------------------------------
A-555555555555------------------4--4-----
E-------------555555555555--------7-5----

"Drown myself away."
G--------------------------------------------------------
D--------------------------------------------------------
A-555555555555-444444444444-222222222222222222222444---0-
E--------------------------------------------------------

"This is getting over you."
G------------------------------------------------------------------
D---77--77--77--77--77--77--77--77--66--66--66--66--66--66--66--66-
A-55--55--55--55--55--55--55--55--44--44--44--44--44--44--44--44---
E------------------------------------------------------------------

G------------------------------------------------------------------------
D---44--44--44--44--44--44--44--------22--22--22--22--22--22--22--22-----
A-22--22--22--22--22--22--22---4444-00--00--00--00--00--00--00--00----5--
E------------------------------------------------------------------------

Enjoi

Taken from The BassMasta -- http://www.tabs-database.com



Get this song at amazon.com      Ebay     Ringtones Ringtones  


Learn to play: Songwriting, Piano, Harmonica, Guitar
Also available at Muzikum: Alkaline Trio - This Is Getting Over You lyrics

Related Alkaline Trio Bass Tabs

Cringe bass
Time To Waste bass
Mercey Me bass
Time To Waste-piano Part bass
Armagedon bass
Cop bass
Amegeddon bass
Hating Every Minute bass
Radio Perfect bass
Metro bass
Jaked On Green Beers bass
Stupid Kidd bass
This Is Getting Over You bass
Private Eye E A D G bass
02 Weve Had Enough bass
Sadie bass
We Ve Had Enough bass
Cooking Wine bass
Queen Of Pain bass
Mercy Me bass


Guitar Tabs









All tabs are property and copyright of their owners. All tabs provided for educational purposes only. Privacy Policy, DMCA

Online converter - videoconverter.com