Alkaline Trio

Take Lots With Alcohol Bass Tabs



More from Alkaline Trio

Alkaline Trio Tabs
Alkaline Trio Chords
Alkaline Trio Bass
Alkaline Trio Lyrics




I've seen them play this live @ the Warped Tour in '02. This is
almost exactly how Dan plays it. Only slightly variated (see
variations at the end of the tab.) The stumming may be slightly
off but listen to the song for that and the timing.

Intro I (Drums)

Intro II:
g||-----------------------------------||
d||-------------------------0-00-2-22-||
a||-0-0000--0-0000--0-0000------------||
e||-----------------------------------||

Verse:
g||-----------------------------------||
d||-------------------------0-00-2-22-|| x4
a||-0-0000--0-0000--0-0000------------||
e||-----------------------------------||

Pre-Chorus:
g|-------------------------------------------------------|
d|--------------------/7-7777-7-77-7-7--7-7777\0-00-2-22-|
a|-00000000----------------------------------------------|
e|----------00000000-------------------------------------|

Verse:
g||-----------------------------------||
d||-------------------------0-00-2-22-|| x4
a||-0-0000--0-0000--0-0000------------||
e||-----------------------------------||

Pre-Chorus:
g|---------------------------------------------------|
d|--------------------/7-7777-7-77-7-7--7-7777\0-000-|
a|-00000000------------------------------------------|
e|----------00000000---------------------------------|

g|-------------------------------------------------------|
d|---------------------------------------------0-00-2-22-|
a|-00000000------------0-0000--0-0000--0-0000------------|
e|----------00000000-------------------------------------|

Chorus:
g||--------------------------------||
d||---------2-2222--0-0000---------|| x4
a||-0-0000------------------7-7777-||
e||--------------------------------||

Post-Chorus:
g||-----------------------------------||
d||-------------------------0-00-2-22-||
a||-0-0000--0-0000--0-0000------------||
e||-----------------------------------||

Verse:
g||-----------------------------------||
d||-------------------------0-00-2-22-|| x4
a||-0-0000--0-0000--0-0000------------||
e||-----------------------------------||

Pre-Chorus:
g|---------------------------------------------------|
d|--------------------/7-7777-7-77-7-7--7-7777\0-000-|
a|-00000000------------------------------------------|
e|----------00000000---------------------------------|

g|-------------------------------------------------------|
d|---------------------------------------------0-00-2-22-|
a|-00000000------------0-0000--0-0000--0-0000------------|
e|----------00000000-------------------------------------|

Chorus:
g||--------------------------------||
d||---------2-2222--0-0000---------|| x4
a||-0-0000------------------7-7777-||
e||--------------------------------||

Bridge:
g||-------------------------------------||
d||----------22222222----------00000000-||
a||-00000000----------44444444----------||
e||-------------------------------------||

Outro: (use all downstrokes)
g||-------------------------------------||
d||----------22222222----------00000000-|| x4
a||-00000000----------44444444----------||
e||-------------------------------------||

-----------------------------------------------------

variation I:
g|-----------------------------------|
d|-----------------------------------|
a|-0-0000--0-0000--0-0000--5-55-7-77-| <--- this variation
is exactly how dan plays it live!
e|-----------------------------------|

variation II:
g|-----------------------------------|
d|-----------------------------------|
a|-------------------------5-55-7-77-| <--- this one is just another possible solution.
e|-5-5555--5-5555--5-5555------------|

variation on the chorus:
g||--------------------------------||
d||---------2-2222--0-0000--2-2222-|| x4
a||-0-0000-------------------------||
e||--------------------------------||



Get this song at amazon.com      Ebay     Ringtones Ringtones  


Learn to play: Songwriting, Piano, Harmonica, Guitar
301 Moved Permanently

Moved Permanently

The document has moved here.

Related Alkaline Trio Bass Tabs

Radio Perfect bass
Private Eye E A D G bass
Metro bass
Tuck Me In bass
Your Neck bass
F*ck You Aurora bass
Cop bass
Warbrain bass
Jaked On Green Beer bass
Steamer Trunk bass
Mercy Me bass
Nose Over Tail bass
Blue Caroline bass
5-3-10-4 bass
Youve Got So Far To Go bass
Armagedon bass
Amegeddon bass
The Poison bass
Time To Waste bass
Trucks And Trains bass


Guitar Tabs




All tabs are property and copyright of their owners. All tabs provided for educational purposes only. Privacy Policy, DMCA