Alkaline Trio

Take Lots With Alcohol Bass Tabs



More from Alkaline Trio

Alkaline Trio Tabs
Alkaline Trio Chords
Alkaline Trio Bass
Alkaline Trio Lyrics

----------------------------------------------------------------------------

TAKE LOTS WITH ALCOHOL - Alkaline Trio

----------------------------------------------------------------------------



Tabbed By : alfonzthemonkey

e-mail: webmaster at tabs-database.com.com



Tuning:standard



wait for drum intro



verse part 1:

G|--------------------------|

D|--------------------------|

A|--------------------55-77-| x5

E|5555-55555-55555-(5)------|



verse part 2:

G|--------------------------|

D|--------------------------|

A|--------------------5555--| x1

E|5555-55555-55555-(5)------|



pre chorus 1:

G|----------------------------------------|

D|------------------777977779777797-------|

A|----------------------------------55-77-| x1

E|22222222-00000000-----------------------|



verse part 1:

G|--------------------------|

D|--------------------------|

A|--------------------55-77-| x3

E|5555-55555-55555-(5)------|



verse part 2:

G|--------------------------|

D|--------------------------|

A|--------------------5555--| x1

E|5555-55555-55555-(5)------|



pre chorus 2:

G|----------------------------------------|

D|------------------777977779777797-------|

A|----------------------------------5555--| x1

E|22222222-00000000-----------------------|



pre chorus 3:

G|---------------------------------------------|

D|---------------------------------------------|

A|---------------------------------------55-77-| x1

E|22222222-00000000-5555-55555-55555-(5)-------|



chorus:

G|-------------------|

D|-------------------|

A|----7777-5555-7777-| x4

E|5555---------------|



verse part 1:

G|--------------------------|

D|--------------------------|

A|--------------------55-77-| x5

E|5555-55555-55555-(5)------|



verse part 2:

G|--------------------------|

D|--------------------------|

A|--------------------5555--| x1

E|5555-55555-55555-(5)------|



pre chorus 2:

G|----------------------------------------|

D|------------------777977779777797-------|

A|----------------------------------5555--| x1

E|22222222-00000000-----------------------|



pre chorus 3:

G|---------------------------------------------|

D|---------------------------------------------|

A|---------------------------------------55-77-| x1

E|22222222-00000000-5555-55555-55555-(5)-------|



chorus:

G|-------------------|

D|-------------------|

A|----7777-5555-7777-| x4

E|5555---------------|



bridge:

G|------------------------------------|

D|------------------------------------|

A|---------77777979-------------------| x2

E|55555555----------22222222-00000000-|



G|------------------------------------|

D|------------------------------------|

A|---------77777777-------------------| x2

E|55555555----------22222222-00000000-|



G|------------------------------------|

D|------------------------------------|

A|------------------------------------| x1

E|55555555-00000000-22222222-00000000-|



G|------------------------------|

D|------------------------------|

A|------------------------------| x1

E|55555555-00000000-22222222-0~-|



I'm pretty sure this tab is right but please email me with any corrections etc. please rate



| / slide up

| \ slide down

| h hammer-on

| p pull-off

| ~ vibrato

| + harmonic

| x Mute note

============================================================================

Added by tabs-database.com and our distinguished partners
Get this song at amazon.com      Ebay     Ringtones Ringtones  


Learn to play: Songwriting, Piano, Harmonica, Guitar
More Alkaline Trio lyrics available at Muzikum

Related Alkaline Trio Tabs

Hell Yes tabs
Blue In The Face Bass tabs
Good Mourning tabs
I Was A Prayer tabs
Fine Without You tabs
Blue In The Face tabs
Tuck Me In tabs
Cop tabs
Every Thug Needs A Lady tabs
Private Eye2 tabs
Old School Reasons Bass tabs
She Took Him To The Lake tabs
Keep Em Coming tabs
Radio Intro Tab tabs
While You Are Waiting tabs
Lucky Smoke Rings tabs
If You Had A Bad Time tabs
All On Black tabs
Mercy Me Bass tabs
Fall Victim tabs


Guitar Tabs









All tabs are property and copyright of their owners. All tabs provided for educational purposes only. Privacy Policy, DMCA