Alkaline Trio

Sundials Chords, Tabs



More from Alkaline Trio

Alkaline Trio Tabs
Alkaline Trio Chords
Alkaline Trio Bass
Alkaline Trio Lyrics

#-----------------------------PLEASE NOTE-------------------------------------#
#This OLGA file is the author's own work and represents their interpretation  #
#of the song. You may only use this file for private study, scholarship, or   #
#research. Remember to view this file in Courier, or some other monospaced    #
#font. See http://www.olga.net/faq/ for more information.                     #
#-----------------------------------------------------------------------------#



Subject: a/alkaline_trio/sundials.tab



Author/Artist: Alkaline Trio
Title: Sun Dials
Album: Sun Dials E.P./Self-Titled
Transcribed by: Jim Taone
Email: j_bro124@hotmail.com

This song might not be 100% correct.  It's not the
best recorded song they've ever released... The
guitar is hard to hear so it was difficult to tab out... but
it should be very close...

enjoy,
jim

Intro/Verse:
----------------------------------------------------|
----------------------------------------------------|
----------------------------------------------------|
--------------------------2-2-2-2--4-4-4--2-2-2-2---|
-/7-7-7-7-7---6-6-6-6-6---0-0-0-0--0-0-0--0-0-0-0---|
--0-0-0-0-0---0-0-0-0-0-----------------------------|

 








Chorus:
-----------------------------------------------------------|
-----------------------------------------------------------|
-----------------------------------------------------------|
-----------------------------------------------------------|
-2-2-2--6-6-6--7-7-7--9-9-9--10-10-10--12-12-12-10-10-10---|
-0-0-0--0-0-0--0-0-0--0-0-0--0--0--0---0--0--0--0--0--0----|

-----------------------------------|
-----------------------------------|
-----------------------------------|
-10-10-10-10-10-10---9-9-9-9-9-9---|
-10-10-10-10-10-10---9-9-9-9-9-9---|
-8--8--8--8--8--8----7-7-7-7-7-7---|

Interlude:
----------------------------------------------------------|
----------------------------------------------------------|
----------------------------------------------------------|
-10-10--10-10--10-10--10-10-------------------------------|
-10-10--10-10--10-10--10-10--10-10--10-10--12-12--10-10---|
-8--8---8--8---8--8---8--8---0--0---0--0---0--0---0--0----|

Ending Chord:
---------|
---------|
---------|
---14----|
---14----|
---12----|

Songflow:
Intro/Verse: 6x
Chorus: 4x
Intro/Verse: 6x
Chorus: 4x
Interlude: 10x
Chorus: 4x
Ending Chord

Questions, comments, corrections... e-mail me at j_bro124@hotmail.com

 








Get this song at amazon.com      Ebay     Ringtones Ringtones  


Learn to play: Songwriting, Piano, Harmonica, Guitar
Also available at Muzikum: Alkaline Trio - Sundials lyrics

Related Alkaline Trio Chords

Radio chords
Enjoy Your Day chords
Sadie chords
The Metro chords
I Pessimist chords
97 chords
Sundials chords
Midnight Blue chords
Blue Carolina chords
If You Had A Bad Time chords
Steamer Trunk chords
Balanced On A Shelf chords
Broken Wing chords
Nose Over Tail chords
Private Eye chords
Continental chords
Blue In The Face chords
My Little Needle chords
Mr Chainsaw chords
Cringe chords


Guitar Tabs









All tabs are property and copyright of their owners. All tabs provided for educational purposes only. Privacy Policy, DMCA