Alkaline Trio

Stupid Kid Bass Tabs



More from Alkaline Trio

Alkaline Trio Tabs
Alkaline Trio Chords
Alkaline Trio Bass
Alkaline Trio Lyrics




intro/bridge
G------------------------------------------------------
D------------------------------------------------------
A----77664~--77664~--77664~--77664~--------------------
E--77------44------77------44--------------------------

1st verse
G----------------------------------------------------------
D----------------------------------------------------------
A----22---------22--------22--------22---------------------
E---------22-00-----22-00-----22-00-----22-00--------------

bridge
G------------------------------------------------------
D------------------------------------------------------
A----77664~--77664~--77664~--77664~--------------------
E--77------44------77------44--------------------------

2nd verse
G----------------------------------------------------------------
D----------------------------------------------------------------
A----22---------22--------22-2-2p1--------22---------------------
E---------22-00-----22-00----------22-00------22-00--------------

chorus
G-------------------------------------------------------------------------------
D-------------------------------------------------------------------------------
A-------------------------------------------------------------------------------
E--77777777-4444-2222--77777777-4444-2222--77777777-4444-2222-0~-2~-0~----------

bridge
G------------------------------------------------------
D------------------------------------------------------
A----77664~--77664~--77664~--77664~--------------------
E--77------44------77------44--------------------------

3rd verse
G----------------------------------------------------------------
D----------------------------------------------------------------
A----22---------22--------22-2-2p1--------22---------------------
E---------22-00-----22-00----------22-00------22-00--------------

bridge
G------------------------------------------------------
D------------------------------------------------------
A----77664~--77664~--77664~--77664~--------------------
E--77------44------77------44--------------------------

interlude
G--------------------------------------------------------
D--------------------------------------------------------
A---------------77777666667777766666---------------------
E--7777777776666-----------------------------------------

chorus
G----------------------------------------------------------------------------------
D----------------------------------------------------------------------------------
A----------------------------------------------------------------------------------
E--77777777-4444-2222--77777777-4444-2222--77777777-4444-2222-0~-2~-0~-7~~---------

It's pretty easy so...have fun with it



Get this song at amazon.com      Ebay     Ringtones Ringtones  


Learn to play: Songwriting, Piano, Harmonica, Guitar
Also available at Muzikum: Alkaline Trio - Stupid Kid lyrics

Related Alkaline Trio Bass Tabs

Crawl bass
Stupid Kid bass
Madame Me bass
Warbrain bass
Youve Got So Far To Go bass
You Aurora bass
Maybe Ill Catch Fire bass
Radio bass
Amegeddon bass
All On Black bass
We Ve Had Enough bass
I Lied My Face Off bass
Burn bass
Mr Chainsaw bass
Another Inocent Girl bass
Clavicle bass
Every Thug Needs A Lady bass
Jaked On Green Beer bass
Metro bass
Fuck You Aurora bass


Guitar Tabs









All tabs are property and copyright of their owners. All tabs provided for educational purposes only. Privacy Policy, DMCA