Alkaline Trio

Steamer Trunk Chords, Tabs



More from Alkaline Trio

Alkaline Trio Tabs
Alkaline Trio Chords
Alkaline Trio Bass
Alkaline Trio Lyrics

#-----------------------------PLEASE NOTE-------------------------------------#
#This OLGA file is the author's own work and represents their interpretation  #
#of the song. You may only use this file for private study, scholarship, or   #
#research. Remember to view this file in Courier, or some other monospaced    #
#font. See http://www.olga.net/faq/ for more information.                     #
#-----------------------------------------------------------------------------#



Subject: a/alkaline_trio/steamer_trunk.tab

Author/Artist: Alkaline Trio
Title: Steamer Trunk
Album: From Here To Infirmary
Transcribed by: Jim Taone
Email: j_bro124@hotmail.com

Should be fairly easy song... play along with c.d. and
it will be simple...

enjoy,
jim

Intro:
---------------------------------------------------|
---------------------------------------------------|
----------------------11-11-11-11-11---9-9-9-9-9---|
-11-11-11-11-11-9-9---11-11-11-11-11---9-9-9-9-9---|
-0--0--0--0--0--0-0---9--9--9--9--9----7-7-7-7-7---|
---------------------------------------------------|

Verse:
------------------------------------|
------------------------------------|
-2----------9--------6--------9---|
-2----------9--------4--------9---|
-0----------7-----------------7---|
------------------------------------|

 








First Verse Fill:
-------------------------------|
-------------------------------|
--------------7-7-7-7-7----9---|
-2-2-2-2-2----7-7-7-7-7----9---|
-2-2-2-2-2----5-5-5-5-5----7---|
-0-0-0-0-0-----------------7---|

Pre-chorus:
----------------------------------------|
----------------------------------------|
-------------7-7-7-7-7---6-6-6---4-4----|
-2-2-2-2-2---x-x-x-x-x---x-x-x---x-x----|
-2-2-2-2-2---5-5-5-5-5---4-4-4---2-2----|
-0-0-0-0-0------------------------------|

Chorus:
--------------------------------------------------------|
--------------------------------------------------------|
-2-2-2-2---7-7-7-7--------------------------------------|
-2-2-2-2---7-7-7-7---4-4-4-4---2-2-2-2------------------|
-0-0-0-0---5-5-5-5---4-4-4-4---2-2-2-2---4-4-4--2-2-2---|
---------------------2-2-2-2---0-0-0-0------------------|

Interlude:
---------------------------|
---------------------------|
----------9---------9------|
------11-----11--11---11---|
--12-----------------------|
---------------------------|

Songflow:
Intro 2x
Verse 3x
First Verse Fill
Intro 2x
Verse 3x
Pre-chorus
Chorus 2x
Intro 2x
Verse 3x
Pre-chorus
Chorus 2x
Interlude 8x
Chorus 2x

Questions, commments, corrections... e-mail me at j_bro124@hotmail.com

 








Get this song at amazon.com      Ebay     Ringtones Ringtones  


Learn to play: Songwriting, Piano, Harmonica, Guitar
301 Moved Permanently

Moved Permanently

The document has moved here.

Related Alkaline Trio Chords

Young Lover chords
Cringe chords
My Standard Break From Life chords
Jaked On Green Beers chords
Blue Carolina chords
Sadie Acoustic chords
San Francisco chords
Continental chords
Nose Over Tail chords
Radio chords
Only Love chords
Enjoy Your Day chords
The Metro chords
Sundials chords
One Last Dance chords
Broken Wing chords
I Pessimist chords
Balanced On A Shelf chords
Crawl chords
Midnight Blue chords


Guitar Tabs




All tabs are property and copyright of their owners. All tabs provided for educational purposes only. Privacy Policy, DMCA