Alkaline Trio

Steamer Trunk Bass Tabs



More from Alkaline Trio

Alkaline Trio Tabs
Alkaline Trio Chords
Alkaline Trio Bass
Alkaline Trio Lyrics



Alkaline Trio: Steamer Trunk
Tabbed by Doshi
comments + stuff email me scosbass@yahoo.com

Verse
G|-----------------6-6-6----------------------------|
D|--7-77-7h9-7--------9-7-6-------------------------|
A|-------------------------------9-999-99-99-7------|
E|--------------------------------------------------|

Verse End
G---------------------------------------------------|
D-------99----------99---------77-------77----------|
A-7777---77-7777---77-5555---55-5555--55------------|
E---------------------------------------------------|

Chorus x2
G|--------------------------------------------------|
D|-----------4>-6666-7777---------------------------|
A|-------5>>---------------7>>----------------------|
E|---5>>--------------------------------------------|

Bridge x2
G|--------99------------99-----------99----99-----------------7-9-7---|
D|--7777---77--7777---77--7777---77--7777---77-4>-6>-------7-9------9-|
A|---------------------------------------------------7>-7-9-----------|
E|--------------------------------------------------------------------|

Taken from The BassMasta -- http://www.tabs-database.com



Get this song at amazon.com      Ebay     Ringtones Ringtones  


Learn to play: Songwriting, Piano, Harmonica, Guitar
301 Moved Permanently

Moved Permanently

The document has moved here.

Related Alkaline Trio Bass Tabs

5-3-10-4 bass
Goodbye Forever bass
Keep Em Coming bass
Nose Over Tail bass
Radio bass
All On Black bass
Emma bass
Fck You Aurora bass
Continental bass
Warbrain bass
For Your Lungs Only bass
Take Lots With Alcohol bass
The Poison bass
Burn bass
Hell Yes bass
Cop bass
Armagedon bass
Private Eye bass
Tuck Me In bass
I Lied My Face Off bass


Guitar Tabs




All tabs are property and copyright of their owners. All tabs provided for educational purposes only. Privacy Policy, DMCA