Alkaline Trio

She Lied to the FBI Tabs



More from Alkaline Trio

Alkaline Trio Tabs
Alkaline Trio Chords
Alkaline Trio Bass
Alkaline Trio Lyrics

Slowly turn up the volume on:
e|---|
B|---| 
G|-9-|
D|-9-|
A|-7-|
E|---|

Intro Solo:
e|-7-7-7-7-7-7-5-5-4-4-4-5-5-5-4-4-|
B|---------------------------------| 
G|---------------------------------|
D|---------------------------------| x4
A|---------------------------------|
E|---------------------------------|

Rhythm in Intro:
e|-----------------------|
B|-----------------------| 
G|-----------2~---4~---2-|
D|-2~---2~---2~---4~---2-|
A|-2~---2~---0~---2~---0-|
E|-0~---0~---------------|

Verse Part 1 (palm-muted):
e|---------------------|
B|---------------------| 
G|--------2------4-----|
D|-2------2-x16--4-x16-|
A|-2-x32--0------2-----|
E|-0-------------------|

Verse Part 2:
e|---------------------------------|
B|---------------------------------| 
G|------------2-2-2~-----4-4-4~----|
D|-2-2-2~-----2-2-2~-x4--4-4-4~-x4-|
A|-2-2-2~-x8--0-0-0~-----2-2-2~----|
E|-0-0-0~--------------------------|
pm . .        . .        . .

Chorus:
e|-------------------|
B|-------------------| 
G|-------------9-----|
D|-7-----9-----9-x16-| x2
A|-7-x8--9-x8--7-----|
E|-5-----7-----------|

e|------------------------------------|
B|------------------------------------| 
G|-------------9-----6----------------|
D|-7-----9-----9-x8--6-x8--7-----9----| 
A|-7-x8--9-x8--7-----4-----7-x8--9-x8-|
E|-5-----7-----------------5-----7----|

Verse Part 1:
e|-------------------------|
B|-------------------------| 
G|------2------4-----------|
D|------2-x16--4-x12--2----|
A|------0------2------2-x4-|
E|-/12---------------------|
pm      .....  .....

Verse Part 2:
e|---------------------------------|
B|---------------------------------| 
G|------------2-2-2~-----4-4-4~----|
D|-2-2-2~-----2-2-2~-x4--4-4-4~-x4-|
A|-2-2-2~-x8--0-0-0~-----2-2-2~----|
E|-0-0-0~--------------------------|
pm . .        . .        . .

Chorus:
e|-------------------|
B|-------------------| 
G|-------------9-----|
D|-7-----9-----9-x16-| x2
A|-7-x8--9-x8--7-----|
E|-5-----7-----------|

e|------------------------------------|
B|------------------------------------| 
G|-------------9-----6----------------|
D|-7-----9-----9-x8--6-x8--7-----9----| 
A|-7-x8--9-x8--7-----4-----7-x8--9-x8-|
E|-5-----7-----------------5-----7----|

Bridge:
e|-------------------|
B|-------------------| 
G|-------------2-----|
D|-6-----2-----2-x16-| x3
A|-6-x8--2-x8--0-----|
E|-4-----0-----------|

e|-------------------|
B|-------------------| 
G|-------------4-----|
D|-6-----2-----4-x16-|
A|-6-x8--2-x8--2-----|
E|-4-----0-----------|

Outro Solo (continues until end):
e|-7-7-7-7-7-7-5-5-4-4-4-5-5-5-4-4-|
B|---------------------------------| 
G|---------------------------------|
D|---------------------------------|
A|---------------------------------|
E|---------------------------------|

Outro Part 1:
e|-------------------|
B|-------------------| 
G|-----------2~---4~-|
D|-2~---2~---2~---4~-|
A|-2~---2~---0~---2~-|
E|-0~---0~-----------|

Pick Slide Then Part 2:
e|----------------------|
B|----------------------| 
G|--------2-------4-----|
D|-2------2-x16---4-x16-| x2
A|-2-x32--0-------2-----|
E|-0--------------------|

End On:
e|-0~-|
B|-0~-| 
G|-1~-|
D|-2~-|
A|-2~-|
E|-0~-|
Get this song at amazon.com      Ebay     Ringtones Ringtones  


Learn to play: Songwriting, Piano, Harmonica, Guitar
More Alkaline Trio lyrics available at Muzikum

Related Alkaline Trio Tabs

Maybe Ill Catch Fire tabs
Fuck You Aurora Bass tabs
Goodbye tabs
Armagedon tabs
While You're Waiting tabs
Burn tabs
Weve Had Enough tabs
Every Thug Needs A Lady tabs
I Lied My Face Off tabs
Stupid Kid Intro tabs
Rooftops tabs
Steamer Trunk Bass tabs
Fall Victim tabs
For Your Lungs Only tabs
Time To Waste tabs
Steamer Trunk tabs
Continental tabs
Weak Week tabs
Crawl tabs
Radio Intro Tab tabs


Guitar Tabs









All tabs are property and copyright of their owners. All tabs provided for educational purposes only. Privacy Policy, DMCA