Alkaline Trio

San Francisco Bass Tabs



More from Alkaline Trio

Alkaline Trio Tabs
Alkaline Trio Chords
Alkaline Trio Bass
Alkaline Trio Lyrics



Artist - alkaline trio
Song - san francisco
tabber - ben sibbons

i saw the original tab to this song and not only didnt i like it, it didnt fit
with the song, so, i decided to tab i out myself, im pretty sure that this tab
is at least 95% correct as the bass is hard to distinguish at most points, if
you have any suggestions on how to improve this please email me at Sibbo_60@hotmail.com

intro

G:------------------------------------------------|
D:----------------------------776--776--776--776--|
A:-77-66-77-99-11-11-99-77-99----9----9----9----9-| x4
E:------------------------------------------------|

verse 1

G:---------------------------------------------------------------9-9/11-9/11-9/11-9/11-|
D:---------------------22-2/77-7-----------------------------2/7-----------------------|
A:-----00-044-4-2/42/4---------44-4-2/42/4-----00-044-422-2--------------------------|
E:-00-0--------------------------------------00-0--------------------------------------|

break

G:--------------------------2222-----------|
D:---------------------2222----------------|
A:------0000-4444-2222-----------4444-2222-| x2
E:-0000------------------------------------|

verse 2

G:-------------------------------------------------------------|
D:---------------------22-2/77-7-------------------------------|
A:-----00-044-4-2/42/4---------44-4-2/42/4-----00-044-422-20~|
E:-00-0--------------------------------------00-0--------------|

chorus 1

G:------------------------------------------------|
D:--------------------------66--------------------|
A:--------------------77-66----66-----------------| x2
E:-00000000-4444-7777-------------7/9-7/9-7/9-7/9-|

G:------------------------------------------------------------|
D:--------------------------2/7~-77777777-77777777-77777777-7~|
A:-77777777-44444444-2222222----------------------------------| x1
E:------------------------------------------------------------|

intro x 2

verse 3

G:----------------------------------------------------------------9|
D:---------------------22-2/77-7------------------------------------|
A:-----00-044-4-2/42/4---------44-4-2/42/4-----00-044-422-20~-----|
E:-00-0--------------------------------------00-0-------------------|

break x 1

verse 4

G:---------------------------------------------------|
D:-----------------22-277-7--------------------------|
A:-----00-044-422-2--------44-422-2----00-044-422-20~|
E:-00-0----------------------------00-0--------------|

Chorus 2

G:------------------------------------------------|
D:--------------------------66--------------------|
A:--------------------77-66----66-----------------| x2
E:-00000000-4444-7777-------------7/9-7/9-7/9-7/9-|

G:---------------------------------------------------------999-11-131313-|
D:--------------------------2/7~-----------------------------------------|
A:-77777777-44444444-2222222----00000000-00000000-00000000---------------| x1
E:-----------------------------------------------------------------------|

chorus 3

G:------------------------------------------------|
D:--------------------------66--------------------|
A:--------------------77-66----66-----------------| x2
E:-00000000-4444-7777-------------7/9-7/9-7/9-7/9-|

G:-------------------------------------------------------------|
D:-------------------------------------------------------------|
A:-77777777-44444444-22222222-0~---0~---0~---0~------0~----7~~~| x1
E:-------------------------------------------------------------|

this is a great song and i hope the tab helps you :)

Brought to you by the BassMasta - http://www.tabs-database.com



Get this song at amazon.com      Ebay     Ringtones Ringtones  


Learn to play: Songwriting, Piano, Harmonica, Guitar
Also available at Muzikum: Alkaline Trio - San Francisco lyrics

Related Alkaline Trio Bass Tabs

Hell Yes bass
Queen Of Pain bass
Private Eye E A D G bass
Wash Away bass
Another Innocent Girl bass
Mr Chainsaw bass
My Little Needle bass
Your Neck bass
All On Black bass
Clavicle bass
Im Dying Tomorrow bass
Every Thug Needs A Lady bass
For Your Lungs Only bass
Sadie bass
Mercey Me bass
Goodbye Forever bass
Metro bass
Stupid Kid bass
Jaked On Green Beer bass
Armagedon bass


Guitar Tabs









All tabs are property and copyright of their owners. All tabs provided for educational purposes only. Privacy Policy, DMCA