Alkaline Trio

Sadie Tabs



More from Alkaline Trio

Alkaline Trio Tabs
Alkaline Trio Chords
Alkaline Trio Bass
Alkaline Trio Lyrics

Alkaline Trio
"Sadie"
Crimson
Tabbed By Kevin
if you have any questions just email me at:
munky_nuggets@yahoo.com
intro/verse
e-333-333-33--000-000-00-------------------------------------|
b-333-333-33--000-111-00-----------111-00000--(8-7-8-7)------|
g-444-555-44--222-222-22-----------xxx-xxxxx-----------------|
d-555-555-55--222-222-22--22222222-222-22222---------
a-555-555-55--000-000-00--22222222-222-22222-----------------|
e-333-333-33--------------00000000-000-00000-----------------|
after the chorus the lead guitar playes this for the intro
e-------------------------------------------------------|
b-----------------(8-7-8-7)-------------------(8-7-8-7)-|
g-------------------------------------------------------|
d------7(x8)9(x10)----------------7(x8)-----------------|
a-10(x8)--------------------10(x8)------7(x10)----------|
e-------------------------------------------------------|
e------------------------------------------|
b------------------------------------------|
g----------22222222------------------
d-55555555-22222222-2222222222222222-------|
a-55555555-00000000-2222222222222222-------|
e-33333333----------0000000000000000-------|
[][][][][][][][][][][][][][][][][][][][][][][][][][][][][][][][][][][][][][]
fill into chorus
e-----------------|
b-----------------|
g-5555555555555555
d-5555555555555555 on the last four chords let up on the palm mutes
a-3333333333333333
e-----------------
****************
[][][][][][][][][][][][][][][][][][][][][][][][][][][][][][][][][][][][][][]
chorus
e-00000000-xxxxxxxx-33333333-22222222-|
b-00000000-11111111-33333333-33333333-|
g-00000000-00000000-00000000-22222222-|
d-22222222-22222222-00000000-00000000-|
a-22222222-33333333-22222222-xxxxxxxx-|
e-00000000----------33333333-xxxxxxxx-|
[][][][][][][][][][][][][][][][][][][][][][][][][][][][][][][][][][][][][][]
Speaking
e--------------------|
b-12------------12---| im not quite sure what goes on in this part
g----12-------12-----| i know it varies but if you play around on
d------9----12-------| those frets it will sound cool
a--------------------|
e--------------------|
[][][][][][][][][][][][][][][][][][][][][][][][][][][][][][][][][][][][][][]
bridge
e-33333333-22222222-xxxxxxxx-xxxxxxxx-|
b-33333333-33333333-11111111-11111111-|
g-00000000-22222222-00000000-00000000-|
d-00000000-00000000-22222222-22222222-|
a-22222222----------33333333-33333333-|
e-33333333----------------------------|
[][][][][][][][][][][][][][][][][][][][][][][][][][][][][][][][][][][][][][]
solo part II
rythem guitar is playign the same chords as in the chorus
the solo is quite easy
e----------------------|
b---8---------8--------|
g----7-----------------| this is played twice and then goes
d------10-9--9--7-10-9-| into the next part
a-10-------------------|
e----------------------|
[][][][][][][][][][][][][][][][][][][][][][][][][][][][][][][][][][][][][][]
solo partII
e-10-10-10-10-8888-88888888-10-10-10-10-8888-77777777-|
b-----------------------------------------------------| this is played twice
g-----------------------------------------------------| then after the second
d-----------------------------------------------------| time you hold 10
a-----------------------------------------------------| and bend it
e-----------------------------------------------------|
intro/verse x6
into chorus x1
chorus x2
intro/verse x6
chorus x4
speaking part x3
bridge x4
solo part I x2
solo part II x2
intro x2



Get this song at amazon.com      Ebay     Ringtones Ringtones  


Learn to play: Songwriting, Piano, Harmonica, Guitar
Also available at Muzikum: Alkaline Trio - Sadie lyrics

Related Alkaline Trio Tabs

The Poison tabs
Over At The Frankenstein Place tabs
One Hundred Stories Intro tabs
Fall Victim tabs
Weve Had Enough tabs
Warbrain tabs
Song For Julie tabs
I Was A Prayer tabs
Burn tabs
Old School Reasons tabs
Old School Reasons Bass tabs
Steamer Trunk tabs
Goodbye tabs
Maybe Ill Catch Fire tabs
Mercy Me tabs
Radio (with The Order) tabs
Stupid Kid Intro tabs
Mr Chainsaw tabs
Blue In The Face tabs
Enjoy Your Day tabs


Guitar Tabs









All tabs are property and copyright of their owners. All tabs provided for educational purposes only. Privacy Policy, DMCA