Alkaline Trio

Radio Bass Tabs



More from Alkaline Trio

Alkaline Trio Tabs
Alkaline Trio Chords
Alkaline Trio Bass
Alkaline Trio Lyrics



Alkaline Trio
Radio
Tabbed by Jason The Great (DAWgAWD@HoTMaiL.com)

notes in parenenthesies are notes i consider to be optional

INTRO (alto played between first and second verse)

G|-----------------------------------------------------------------|
D|----------------------------------------------------(7)-(4)------|
A|-5-5-5-5-5-5-5-5-5-5-5-5-4-4-4-4-2-2-2-2-2-2-2-2-0-0-0-0-0-0-0-0-|
E|-----------------------------------------------------------------|

G|---------------------------------------------------|
D|---------------------------------------------------|
A|-5-5-5-5-5-5-5-5-5-5-5-5-4-4-4-4-------------------|
E|---------------------------------7-7-7-7-7-7-7-7-5-|

VERSE

G|-----------------------------------------------------------------|
D|-----------------------------------------------------------------|
A|-5-5-5-5-5-5-5-5-5-5-5-5-4-4-4-4---------------------------------|x2
E|---------------------------------7-7-7-7-7-7-7-7-5-5-5-5-5-5-5-5-|

G|-----------------------------------------------------------------|
D|-----------------------------------------------------7-7-5-5-4-4-|
A|-5-5-5-5-5-5-5-5-5-5-5-5-4-4-4-4-2-2-2-2-2-2-2-2-0-0(0-0-0-0-0-0)|
E|-----------------------------------------------------------------|

G|-----------------------------------------------------------------|
D|-----------------------------------------------------------------|
A|-5-5-5-5-5-5-5-5-5-5-5-5-4-4-4-4---------------------------------|
E|---------------------------------7-7-7-7-7-7-7-7-5-5-5-5-5-5-5-5-|

G|---------------------------|
D|---------------------------|
A|---------------------------|
E|-3-3-3-3-3-3-3-3-3-3-3-3-5-|

CHORUS

G|-----------------------------------------------------------------|
D|-----------------------------------------------------------------|
A|-5-5-5-5-5-5-5-5-----------------5-5-5-5-5-5-5-5-----------------|x2
E|-----------------5-5-5-5-5-5-5-5-----------------7-7-7-7-5-5-5-5-|

G|---------------------------------------------------|
D|---------------------------------------------------|
A|---------------------------------------------------|
E|-3-3-3-3-3-3-3-3-3-3-3-3-3-3-3-1-3-3-3-3-3-3-3-1-5-|

INTRO TO THIRD VERSE

G|------------------------------------------------------------------|
D|------------------------------------------------------7---4-------|
A|-5-5-5-5-5-5-5-5-5-5-5-5-/7-7-5-4-2-2-2-2-4-4-5-5-0-0-0-0-0-0-0-0-|
E|------------------------------------------------------------------|

G|----------------------------------------------------|
D|----------------------------------------------------|
A|-5-5-5-5-5-5-5-5-5-5-5-5-/7-7-5-4-2-2-2-2-4-4-5-5-0-|
E|----------------------------------------------------|

OUTRO

G|-----------------------------------------------------------------------|
D|--------------------------------------------------------------/7-7-5-4-|
A|-5-5-5-5-5-5-5-4-5-5-5-5-4-4-4--2h4p2-2-2-2-2-2-2--0h2p0-0-0-0---------|
E|-----------------------------------------------------------------------|

G|----------------------------------------------------------------------|
D|-------------------------------------------------------------/7-7-5-4-|
A|-5-5-5-5-5-5-5--4h5-5-5-5-4-4--2h4p2-2-2-2-2-2-2--0h2p0-0-0-0---------|x2
E|----------------------------------------------------------------------|

G|----------------------------------------------------------------------|
D|----------------------------------------------------------------------|
A|-5-5-5-5-5-5-5--4h5-5-5-5-4-4--2h4p2-2-2-2-2-2-2--0h2p0-0-0-0-0-0-0-0-|
E|----------------------------------------------------------------------|

G|---------------------------|
D|---------------------------|
A|---------------------------|
E|-3-3-3-3-3-3-3-3-3-3-3-3-5-|






Get this song at amazon.com      Ebay     Ringtones Ringtones  


Learn to play: Songwriting, Piano, Harmonica, Guitar
301 Moved Permanently

Moved Permanently

The document has moved here.

Related Alkaline Trio Bass Tabs

San Francisco bass
Amegeddon bass
Burn bass
Clavicle bass
Trucks And Trains bass
All On Black bass
Crawl bass
Fuck You Aurora bass
Another Inocent Girl bass
Hating Every Minute bass
Your Neck bass
Maybe Ill Catch Fire bass
Steamer Trunk bass
Cop bass
Sadie bass
Wash Away bass
Goodbye Forever bass
Mercy Me bass
Blue Carolina bass
Warbrain bass


Guitar Tabs




All tabs are property and copyright of their owners. All tabs provided for educational purposes only. Privacy Policy, DMCA