Alkaline Trio

Radio Perfect Bass Tabs



More from Alkaline Trio

Alkaline Trio Tabs
Alkaline Trio Chords
Alkaline Trio Bass
Alkaline Trio Lyrics



G-------11----11----9----7----11---11-----9-------9--------11----11----9----7----11-11---
D----0-0---0-0---0-0--0-0--9-9--9-9------0--7---7---7---0-0---0-0---0-0--0-0--9-9--------
A--------------------------------------------0-------------------------------------------
E----------------------------------------------------------------------------------------

G-----9-------
D--7----------
A-------------
E-------------





Thats it so ya



Keep It Sunshine and razorblades



Get this song at amazon.com      Ebay     Ringtones Ringtones  


Learn to play: Songwriting, Piano, Harmonica, Guitar
301 Moved Permanently

Moved Permanently

The document has moved here.

Related Alkaline Trio Bass Tabs

Fatally Yours bass
Im Dying Tomorrow bass
Crawl bass
Your Neck bass
Cop bass
Radio bass
My Little Needle bass
Armageddon bass
Fuck You Aurora bass
Sadie bass
Cringe bass
Blue Caroline bass
Stupid Kid bass
Hating Every Minute bass
5-3-10-4 bass
We Ve Had Enough bass
Emma bass
Trucks And Trains bass
Jaked On Green Beers bass
You Aurora bass


Guitar Tabs




All tabs are property and copyright of their owners. All tabs provided for educational purposes only. Privacy Policy, DMCA