Alkaline Trio

Private I Tabs



More from Alkaline Trio

Alkaline Trio Tabs
Alkaline Trio Chords
Alkaline Trio Bass
Alkaline Trio Lyrics



Intro:
E |---------------------------------------------------|
B |---------------------------------------------------|
G |--12-12-12-12-12-12--11-11--14-14-14-14--12--12----|
D |---x--x--x--x--x--x---x--x---x--x--x--x---x---x----|
A |--10-10-10-10-10-10---9--9--12-12-12-12--10--10----|
E |---------------------------------------------------|

E |--------------------------------------------|
B |--------------------------------------------|
G |--------------------------------------------|
D |--9-9-9-9-9-9-9-9--10-10-10-10-10-----------|
A |--9-9-9-9-9-9-9-9--10-10-10-10-10-----------|
E |--7-7-7-7-7-7-7-7--8--8--8--8--8------------|

Note: Play twice, second time ends slightly differently.
E |-------------------------------------------------------|
B |-------------------------------------------------------|
G |--12-12-12-12-12-12--11-11--14-14-14-14--12--12--------|
D |---x--x--x--x--x--x---x--x---x--x--x--x---x---x--------|
A |--10-10-10-10-10-10---9--9--12-12-12-12--10--10--------|
E |-------------------------------------------------------|

E |-------------------------------------|
B |-------------------------------------|
G |-------------------------------------|
D |--9-9-9-9-9-9-9-9--10--10--10--9--9--|
A |--9-9-9-9-9-9-9-9--10--10--10--9--9--|
E |--7-7-7-7-7-7-7-7--8---8---8---7--7--|

Verse:

E |----------------------------------------------------|
B |----------------------------------------------------|
G |----------------------------------------------------|
D |----------------------------------------------------|
A |--10-10-10-10-10-10--9-9--12-12-12-12--10-10-10-10--|
E |--0--0--0--0--0--0---0-0--0--0--0--0---0--0--0--0---|

E |------------------------------------|
B |------------------------------------|
G |------------------------------------|
D |--9-9-9-9-9-9-9-9--10-10-10-10-10---|
A |--9-9-9-9-9-9-9-9--10-10-10-10-10---|
E |--7-7-7-7-7-7-7-7--8--8--8--8--8----|

Chorus:

E |-----------------------------------|
B |-----------------------------------|
G |-----------------------------------|
D |--5-5-5-5-5-5-5-5-5-5-5-5-5-5-5-5--|
A |--5-5-5-5-5-5-5-5-5-5-5-5-5-5-5-5--|
E |--3-3-3-3-3-3-3-3-3-3-3-3-3-3-3-3--|

E |--------------------------------------|
B |--------------------------------------|
G |---------------------7-7-7-7-7-7-7-7--|
D |--9-9-9-9-9-9-9-9-9--7-7-7-7-7-7-7-7--|
A |--9-9-9-9-9-9-9-9-9--5-5-5-5-5-5-5-5--|
E |--7-7-7-7-7-7-7-7-7-------------------|


E |-----------------------------------|
B |-----------------------------------|
G |-----------------------------------|
D |--5-5-5-5-5-5-5-5-5-5-5-5-5-5-5-5--|
A |--5-5-5-5-5-5-5-5-5-5-5-5-5-5-5-5--|
E |--3-3-3-3-3-3-3-3-3-3-3-3-3-3-3-3--|

E |--------------------------------------|
B |--------------------------------------|
G |--9-9-9-9-9-9-9-9-9--7-7-7-7-7-7-7-7--|
D |--9-9-9-9-9-9-9-9-9--7-7-7-7-7-7-7-7--|
A |--7-7-7-7-7-7-7-7-7--5-5-5-5-5-5-5-5--|
E |--------------------------------------|


Get this song at amazon.com      Ebay     Ringtones Ringtones  


Learn to play: Songwriting, Piano, Harmonica, Guitar
More Alkaline Trio lyrics available at Muzikum

Related Alkaline Trio Tabs

Time To Waste Acoustic tabs
Private Eye Bass tabs
She Took Him To The Lake tabs
Steamer Trunk Bass tabs
Death Bed tabs
My Standard Break From Life tabs
The Metro tabs
You've Got So Far To Go tabs
This Is Getting Over You tabs
We've Had Enough tabs
Mercy Me Bass tabs
Armageddon Bass tabs
Private Eye2 tabs
Weve Had Enough tabs
My Friend Peter tabs
Crawl tabs
Exploding Boy tabs
Song For Julie tabs
If We Never Go Inside tabs
Fuck You Aurora tabs


Guitar Tabs









All tabs are property and copyright of their owners. All tabs provided for educational purposes only. Privacy Policy, DMCA