Alkaline Trio

Private Eye Bass Tabs



More from Alkaline Trio

Alkaline Trio Tabs
Alkaline Trio Chords
Alkaline Trio Bass
Alkaline Trio Lyrics




Private Eye
Alkaline Trio
tabbed by ben rackow

Intro (x1)
G-----------------------------------------------------------------
D-----------------------------------------------------------------
A---------------------------------2-2-2-2-2-2-2-2-3-3-3-3-3-3-3-3-
E-0-0-0-0-0-0-0-0-0-0-0-0-0-0-0-0---------------------------------

G-----------------------------------------------------------------
D-----------------------------------------------------------------
A---------------------------------2-2-2-2-2-2-2-2-3-3-3-3-3-3-3-3-
E-0-0-0-0-0-0-0-0-0-0-0-0-0-0-0-0---------------------------------

G--------------------------------------------------------------
D---------2-0-2-0------2-4-2-0---------------------------------
A------------------------------2-2-2-2-2-2-2-2-3-3-3-3-3-3-3-3-
E-0-0-0-0---------0----------===-------------------------------


G------------------------------------------------------------
D------------------------------------------------------------
A---------------------------------2-2-2-2-2-2-2-2-3-3-3--2-2-
E-0-0-0-0-0-0-0-0-0-0-0-0-0-0-0-0----------------------------

Verse #1 (x4)
G-----------------------------------------------------------------
D-----------------------------------------------------------------
A---------------------------------2-2-2-2-2-2-2-2-3-3-3-3-3-3-3-3-
E-0-0-0-0-0-0-0-0-0-0-0-0-0-0-0-0---------------------------------


Bridge #1 (x2)
G-----------------------------------------------------------------
D-----------------------------------------------------------------
A---------------------------------2-2-2-2-2-2-2-2-3-3-3-3-3-3-3-3-
E-0-0-0-0-0-0-0-0-0-0-0-0-0-0-0-0---------------------------------


Verse #2 (x1)
G-----------------------------------------------------------------
D-----------------------------------------------------------------
A---------------------------------2-2-2-2-2-2-2-2-3-3-3-3-3-3-3-3-
E-0-0-0-0-0-0-0-0-0-0-0-0-0-0-0-0---------------------------------

G-----------------------------------------------------------------
D-----------------------------------------------------------------
A---------------------------------2-2-2-2-2-2-2-2-3-3-3-3-3-3-3-3-
E-0-0-0-0-0-0-0-0-0-0-0-0-0-0-0-0---------------------------------

G--------------------------------------------------------------
D---------2-0-2-0------2-4-2-0---------------------------------
A------------------------------2-2-2-2-2-2-2-2-3-3-3-3-3-3-3-3-
E-0-0-0-0---------0--------------------------------------------


G-----------------------------------------------------------------
D-----------------------------------------------------------------
A---------------------------------2-2-2-2-2-2-2-2-3-3-3-3-3-3-3-3-
E-0-0-0-0-0-0-0-0-0-0-0-0-0-0-0-0---------------------------------


Chorus (x2)
G-----------------------------------------------------------------
D-----------------------------------------------------------------
A---------------------------------2-2-2-2-2-2-2-2-5-5-5-5-5-5-5-5-
E-3-3-3-3-3-3-3-3-3-3-3-3-3-3-3-3---------------------------------

G-----------------------------------------------------------------
D---------------------------------2-2-2-2-2-2-2-2-0-0-0-0-0-0-0-0-
A-----------------------------------------------------------------
E-3-3-3-3-3-3-3-3-3-3-3-3-3-3-3-3---------------------------------


Bridge #1 (x2)


Verse #3 (x1)
G-----------------------------------------------------------------
D-----------------------------------------------------------------
A---------------------------------2-2-2-2-2-2-2-2-3-3-3-3-3-3-3-3-
E-0-0-0-0-0-0-0-0-0-0-0-0-0-0-0-0---------------------------------

G-----------------------------------------------------------------
D-----------------------------------------------------------------
A---------------------------------2-2-2-2-2-2-2-2-3-3-3-3-3-3-3-3-
E-0-0-0-0-0-0-0-0-0-0-0-0-0-0-0-0---------------------------------

G--------------------------------------------------------------
D---------2-0-2-0------2-4-2-0---------------------------------
A------------------------------2-2-2-2-2-2-2-2-3-3-3-3-3-3-3-3-
E-0-0-0-0---------0--------------------------------------------


G-----------------------------------------------------------------
D-----------------------------------------------------------------
A---------------------------------2-2-2-2-2-2-2-2-3-3-3-3-3-3-3-3-
E-0-0-0-0-0-0-0-0-0-0-0-0-0-0-0-0---------------------------------


Chorus (x2)


Bridge #2 (x1)
G-----------------------------------------------------------------
D-----------------------------------------------------------------
A-3-3-3-3-3-3-3-3-3-3-3-3-3-3-3-3-5-5-5-5-5-5-5-5-5-5-5-5-5-5-5-5-
E-----------------------------------------------------------------


Riff (x1)
G-----------------------------------------------------------------
D-----------------------------------------------------------------
A---------------------------------2-2-2-2-2-2-2-2-3-3-3-3-3-3-3-3-
E-0-0-0-0-0-0-0-0-0-0-0-0-0-0-0-0---------------------------------

G--------------------------------------------------------------
D---------2-0-2-0------2-4-2-0---------------------------------
A------------------------------2-2-2-2-2-2-2-2-3-3-3-3-3-3-3-3-
E-0-0-0-0---------0--------------------------------------------


Chorus (x2)


Outro (last note)
G----||
D----||
A----||
E-3<-||



Get this song at amazon.com      Ebay     Ringtones Ringtones  


Learn to play: Songwriting, Piano, Harmonica, Guitar
301 Moved Permanently

Moved Permanently

The document has moved here.

Related Alkaline Trio Bass Tabs

Blue Carolina bass
Private Eye E A D G bass
You Aurora bass
Burn bass
Cringe bass
Fatally Yours bass
Time To Waste bass
Fuck You Aurora bass
Wash Away bass
Amegeddon bass
Mercy Me bass
Stupid Kidd bass
Jaked On Green Beers bass
Continental bass
Armageddon bass
Fall Victim bass
Another Inocent Girl bass
Adeledia bass
Goodbye Forever bass
This Could Be Love bass


Guitar Tabs




All tabs are property and copyright of their owners. All tabs provided for educational purposes only. Privacy Policy, DMCA