Alkaline Trio

Private Eye E A D G Bass Tabs



More from Alkaline Trio

Alkaline Trio Tabs
Alkaline Trio Chords
Alkaline Trio Bass
Alkaline Trio Lyrics



name: Alkaline Trio
song: Private eye
tabbed by: cat killer Chas

Intro
G|-------------------------------------------------|
D|-------------------------------------------------|
A|7777777777777777---------------------------------|
E|-----------------7777777788888888----------------|

G|-------------------------------------------------|
D|-------------------------------------------------|
A|7777777777777777---------------------------------|
E|-----------------7777777788888888----------------|

G|-------------------------------------------------|
D|--------------5----------------------------------|
A|7777757577757---75-------------------------------|
E|-------------------7777777788888888--------------|

G|--------------------------------------------------|
D|--------------------------------------------------|
A|7777777777777777----------------------------------|
E|----------------77777777--888--888----------------|

Verse
G|--------------------------------------------------|
D|--------------------------------------------------|
A|7777777777777777----------------------------------|
E|-----------------7777777788888888-----------------|

Every now and then in the verse it goes like this:
G|--------------------------------------------------|
D|-------------5------------------------------------|
A|77777575---57-75----------------------------------|
E|----------------7777777788888888------------------|
You’ll have to listen to find out where it goes.

Chorus
G|------------------------------------------------|
D|------------------------------------------------|
A|-----------------------55555555-----------------|
E|33333333333333377777777-------------------------|

Bridge
G|------------------------------------------------|
D|------------------------------------------------|
A|-------------/5555555555------------------------|
E|777777777777------------------------------------|

That’s the song. I’m pretty sure it’s correct, but it’s
my first tab. Try it before you decide you don’t like it.

Taken from The BassMasta -- http://www.tabs-database.com



Get this song at amazon.com      Ebay     Ringtones Ringtones  


Learn to play: Songwriting, Piano, Harmonica, Guitar
More Alkaline Trio lyrics available at Muzikum

Related Alkaline Trio Bass Tabs

Mercy Me bass
The Metro bass
Cop bass
Adeledia bass
Radio Perfect bass
Maybe Ill Catch Fire bass
Hell Yes bass
Jaked On Green Beer bass
Mr Chainsaw bass
Burn bass
This Is Getting Over You bass
Dead End Road bass
San Francisco bass
Time To Waste bass
For Your Lungs Only bass
Fck You Aurora bass
Your Neck bass
Trucks And Trains bass
Weak Week bass
You Aurora bass


Guitar Tabs









All tabs are property and copyright of their owners. All tabs provided for educational purposes only. Privacy Policy, DMCA