Alkaline Trio

One Hundred Stories Bass Tabs



More from Alkaline Trio

Alkaline Trio Tabs
Alkaline Trio Chords
Alkaline Trio Bass
Alkaline Trio Lyrics



Band: The Alkaline Trio
CD: Good Mourning
Song: One Hundred Stories
Bassist: Daniel Andriano
Label: Vagrant
Tabber: Chris

Intro
Gb|-------------------------------------|
Db|-------------------------------------|
Ab|-------1-----331p0-11111111-33333333-| x2
Db|-333333--3333------------------------|
Pull off is optional

Verse
Gb|-------------------|
Db|-------------------|
Ab|-------------------| x3
Db|-33333333-00000000-|

Gb|-------------------|
Db|-------------------|
Ab|-11111111-33333333-| x1
Db|-------------------|

Gb|-------------------|
Db|-------------------|
Ab|-------------------| x3
Db|-33333333-00000000-|

Gb|-------------------|
Db|-------------------|
Ab|-11111111-33333333-| x1
Db|-------------------|

Pre-Chorus
Gb|-------------------------------------------|
Db|-0000------0000-3333-0000------------------|
Ab|------1111----------------1111-33333333----| x1
Db|-------------------------------------------|

Gb|------------------------------------|
Db|-0000------0000-3333-0000-----------|
Ab|------1111----------------1111-3----| x1
Db|------------------------------------|

Chorus
Gb|-------------------------------------|
Db|-------------------00000000----------|
Ab|----------33333333----------11111111-| x2
Db|-33333333----------------------------|

Gb|-------------------------------------|
Db|----------00000000-------------------|
Ab|-00000000----------11111111-33333333-| x1
Db|-------------------------------------|

Gb|-------------------------------------|
Db|-------------------------------------|
Ab|-00000000-00000000-33333333-33333333-| x1
Db|-------------------------------------|

Intro
Gb|-------------------------------------|
Db|-------------------------------------|
Ab|-------1-----331p0-11111111-33333333-| x1
Db|-333333--3333------------------------|
Pull off is optional

Gb|-------------------------------------|
Db|-------------------------------------|
Ab|-------1-----3-1-0-11111111-33333333-| x1
Db|-333333--3333------------------------|

Verse
Pre-Chorus
Chorus

Bridge (let guitar play once through)
Gb|-------------------------------------|
Db|-------------------------------------|
Ab|-------------------1--------1--------|
Db|-3--------0--------------------------|
^ Listen for that extra one.
No guitar chord accompanies it.

Gb|-------------------------------------|
Db|-------------------------------------|
Ab|-------------------11111111-11111111-| x2
Db|-33333333-00000000-------------------|

Outro (I'm gonna try my best. He variates a little in each bar so
mess around with it.)
Gb|-------------------------------------------|
Db|-------------------------------------------|
Ab|----00----------------00-11111111-11111111-| x3
Db|-33----55-33-00-22-33----------------------|

Gb|---------------------|
Db|---------------------|
Ab|-------------------1-|
Db|-33333333-00000000---|

Thank you. Please rate and search for my tab for Donner Party,
It doesn't appear under alkaline trio.

Taken from The BassMasta -- http://www.tabs-database.com



Get this song at amazon.com      Ebay     Ringtones Ringtones  


Learn to play: Songwriting, Piano, Harmonica, Guitar
Also available at Muzikum: Alkaline Trio - One Hundred Stories lyrics

Related Alkaline Trio Bass Tabs

Cringe bass
Radio bass
Queen Of Pain bass
Cop bass
Every Thug Needs A Lady bass
Jaked On Green Beer bass
Weve Had Enough bass
Mercey Me bass
Mercy Me bass
Fatally Yours bass
Blue Caroline bass
Steamer Trunk bass
Another Inocent Girl bass
Tuck Me In bass
Hell Yes bass
Time To Waste bass
The Poison bass
Armagedon bass
One Hundred Stories bass
Old School Reasons bass


Guitar Tabs









All tabs are property and copyright of their owners. All tabs provided for educational purposes only. Privacy Policy, DMCA