Alkaline Trio

Nose Over Tail Bass Tabs



More from Alkaline Trio

Alkaline Trio Tabs
Alkaline Trio Chords
Alkaline Trio Bass
Alkaline Trio Lyrics



Yet another trip to the dark past of the Trio

G------------------------------------4-4--
D-------------------------------2222--2-2-
A-2222-2222-----------2222-2222-----------
E-----------0000 0000---------------------

G----------------------------------------------
D----------------------------------------------
A-4444-4444-4444-4466-7777-7777----------------
E-------------------------------55 55 55 55--7-

G----------------------------------------
D---------------------------6------------
A-----------2222-2222-4-44-6-6-----------
E-0000-0000--------------------5555 5754-

G-----------------------------------------
D-----------------------------------------
A-----------2222-2222---------------------
E-0000-0000-----------5555-5555-2222-2222-

Enjoi

Taken from The BassMasta -- http://www.tabs-database.com



Get this song at amazon.com      Ebay     Ringtones Ringtones  


Learn to play: Songwriting, Piano, Harmonica, Guitar
Also available at Muzikum: Alkaline Trio - Nose Over Tail lyrics

Related Alkaline Trio Bass Tabs

Dead End Road bass
Warbrain bass
Jaked On Green Beers bass
The Metro bass
Time To Waste bass
Sadie bass
Cooking Wine bass
Weve Had Enough bass
Private Eye bass
F*ck You Aurora bass
Another Inocent Girl bass
Trucks And Trains bass
Queen Of Pain bass
Cringe bass
Mr Chainsaw bass
Armagedon bass
Radio Perfect bass
Fck You Aurora bass
Snake Oil Tankers bass
Clavicle bass


Guitar Tabs









All tabs are property and copyright of their owners. All tabs provided for educational purposes only. Privacy Policy, DMCA