Alkaline Trio

Ninety Seven Tabs



More from Alkaline Trio

Alkaline Trio Tabs
Alkaline Trio Chords
Alkaline Trio Bass
Alkaline Trio Lyrics



-------------------------------------------------------------------------------
97 - Alkaline Trio
-------------------------------------------------------------------------------

By: Joe Sullivan (wwwimthemancom@aol.com)

This is one of the best Alkaline Trio songs i ever heard,
Thats why i was surprised that it wasnt Tabbed on here already.
So this is it, Im almost positive that its correct. If you
have any changes to make or errors you see please email me to
tell me that i suck. Rock On!

INTRO :
e|-----------------------------------------------------------------------|
B|-----------------------------------------------------------------------|
G|-----------------------------------------------------------------------|
D|---------7-----6-----6-------4----/---9--------------------------------|
A|----0------0------0-----0------0------7----7---------------------------|
E|-------------------------------------------5---------------------------|

e|-----------------------------------------------------------------------|
B|-----------------------------------------------------------------------|
G|-----------------------------------------------------------------------|
D|---9---/---11--/---13--/---16------------------------------------------|
A|---7--/----9---/---11--/---14-----7------------------------------------|
E|----------------------------------5------------------------------------|

INTRO PT.2 / Verse (I had it all, I hole in my side the size of a cadillac..)
e|-----------------------------------------------------------------------|
B|-----------------------------------------------------------------------|
G|-----------------------------------------------------------------------|
D|----9-9-9-9-----pause--------------------------------------------------|
A|----7-7-7-7-----pause---7-7-7-7-/-9-/-11-11-11-11--/-9-9-9-9-----------|
E|------------------------5-5-5-5-/-7-/--9--9--9--9--/-7-7-7-7-----------|

Verse and Chorus same thing without the pause and it is palm muted.

Between Chorus and 2nd verse he does a lot of random stuff that is
easy to figure out, or just improvise.

BRIDGE : BASS (I don't deserve this..) i think goes like this..

A|-----7--7--7--7--4--4--2--2--0--0--0--0--4--4--2--2-------------------|

he likes to throw in other notes as well like 3rds or 5ths.

-------------------------------------------------------------------------------


Get this song at amazon.com      Ebay     Ringtones Ringtones  


Learn to play: Songwriting, Piano, Harmonica, Guitar
Also available at Muzikum: Alkaline Trio - Ninety Seven lyrics

Related Alkaline Trio Tabs

I Was A Prayer tabs
Wash Away Bass tabs
While You're Waiting tabs
Mr Chainsaw tabs
The Poison tabs
Song For Julie tabs
The Metro tabs
Crawl tabs
Remains tabs
Mercy Me Bass tabs
Mercy Me Acoustic tabs
Nose Over Tail tabs
Mister Chainsaw tabs
Take Lots With Alcohol tabs
We Can Never Break Up tabs
Sadie tabs
Tuck Me In tabs
Good Bye Forever tabs
Donner Party All Night Long tabs
Burn tabs


Guitar Tabs









All tabs are property and copyright of their owners. All tabs provided for educational purposes only. Privacy Policy, DMCA