Alkaline Trio

My Standard Break From Life Tabs



More from Alkaline Trio

Alkaline Trio Tabs
Alkaline Trio Chords
Alkaline Trio Bass
Alkaline Trio Lyrics



-------------------------------------------------------------------------------
MY STANDARD BREAK FROM LIFE - Alkaline Trio
-------------------------------------------------------------------------------

By:david hansan

intro:"ive got a regular problem so my standard break from life is in order"
e|---------------------------------------------------------------------------|
B|---------------------------------------------------------------------------|
G|----5-5-5-5-5-5-5-5--------------------------------------------------------|
D|----3-3-3-3-3-3-3-3-5-5-5-5-5-5-5-5--7-7-7-7-7-7-7-7--3/5-5-5-5-5-5-5-5----|
A|--------------------3-3-3-3-3-3-3-3--5-5-5-5-5-5-5-5--1/3-3-3-3-3-3-3-3----|
E|---------------------------------------------------------------------------|

verse:"im having trouble making sentences, im older but i dont feel any smarter"
e|---------------------------------------------------------------------------|
B|-----palm muted------palm muted--------palm muted------not palm muted------|
G|----5-5-5-5-5-5-5-5--------------------------------------------------------|
D|----3-3-3-3-3-3-3-3-5-5-5-5-5-5-5-5--7-7-7-7-7-7-7-7--3/5-5-5-5-5-5-5-5----|
A|--------------------3-3-3-3-3-3-3-3--5-5-5-5-5-5-5-5--1/3-3-3-3-3-3-3-3----|
E|---------------------------------------------------------------------------|

pre chorus:"yes im convicted til' my eyes are blue and your in love with someone new..."
e|---------------------------------------------------------------------------|
B|---------------------------------------------------------------------------|
G|----5-5-5-5-5-5-5-5--------------------------------------------------------|
D|----3-3-3-3-3-3-3-3-5-5-5-5-5-5-5-5--7-7-7-7-7-7-7-7--3-3-3-3-3-3-3-3------|
A|--------------------3-3-3-3-3-3-3-3--5-5-5-5-5-5-5-5--1-1-1-1-1-1-1-1------|
E|---------------------------------------------------------------------------|

"... wish i could waste my time without wasting all your time"
e|---------------------------------------------------------------------------|
B|---------------------------------------------------------------------------|
G|--------------------------------------5-5-5-5-5-5-5-5----------------------|
D|----5-5-5-5-5-5-5-5--3-3-3-3-3-3-3-3--3-3-3-3-3-3-3-3--5-5-5-5-5-5-5-5-----|
A|----3-3-3-3-3-3-3-3--1-1-1-1-1-1-1-1-------------------3-3-3-3-3-3-3-3-----|
E|---------------------------------------------------------------------------|

chorus:"and you say im fixable a classic case lack of will,"
e|---------------------------------------------------------------------------|
B|---------------------------------------------------------------------------|
G|----5-5-5-5-5-5-5-5--------------------------------------------------------|
D|----3-3-3-3-3-3-3-3-5-5-5-5-5-5-5-5--7-7-7-7-7-7-7-7--3-3-3-3-3-3-3-3------|
A|--------------------3-3-3-3-3-3-3-3--5-5-5-5-5-5-5-5--1-1-1-1-1-1-1-1------|
E|---------------------------------------------------------------------------|

"i say i dont wanna try id rather sit here all night"
e|---------------------------------------------------------------------------|
B|---------------------------------------------------------------------------|
G|---------------------------------------------------------------------------|
D|---5-5-x-x-5-5-x-x-5-5-x-x-5-5-x-x--3-3-3-3-3-3-3-3------------------------|
A|---3-3-x-x-3-3-x-x-3-3-x-x-3-3-x-x--1-1-1-1-1-1-1-1------------------------|
E|---------------------------------------------------------------------------|

solo kinda thing:chorus
e|---------------------------------------------------------------------------|
B|---------------------------------------------------------------------------|
G|---5-5--3--5--7--5---5-5--3--5--7--5---5-5--3--5--7--5---------------------| 2x
D|---3-3---------------3-3---------------3-3---------------5-5-5-5--3-3-3-3--|
A|---------------------------------------------------------3-3-3-3--1-1-1-1--|
E|---------------------------------------------------------------------------|

but the second time is a little different just do this.
e|---------------------------------------------------------------------------|
B|---------------------------------------------------------------------------|
G|---------------------------------------------------------------------------|
D|----5-5-5-5--3-3-3-3-3-3-3-3-3-3-3-3--5-5-5-5-5-5-5-5-5-5-5-5--------------|
A|----3-3-3-3--1-1-1-1-1-1-1-1-1-1-1-1--3-3-3-3-3-3-3-3-3-3-3-3--------------|
E|---------------------------------------------------------------------------|

after all this it just all repeats again.
if any of this was wrong please feel free to make any corrections and please
e-mail me at: monkeyfight4u@aol.com and chek out no more regrets at
www.nomoreregrets.cjb.net.

-------------------------------------------------------------------------------


Get this song at amazon.com      Ebay     Ringtones Ringtones  


Learn to play: Songwriting, Piano, Harmonica, Guitar
Also available at Muzikum: Alkaline Trio - My Standard Break From Life lyrics

Related Alkaline Trio Tabs

Burn tabs
Warbrain tabs
Nose Over Tail tabs
Bleeder tabs
I'm Dying Tomorrow tabs
I Lied My Face Off Bass tabs
Song For Julie tabs
Take Lots With Alcohol tabs
While Youre Waiting tabs
My Little Needle tabs
Sleepy Head tabs
Sorry About That tabs
Youre Dead tabs
Mercy Me Bass tabs
You've Got So Far To Go tabs
Cringe tabs
You Aurora tabs
Im Dying Tomorrow tabs
One Hundred Stories tabs
Donner Party All Night Bass tabs


Guitar Tabs









All tabs are property and copyright of their owners. All tabs provided for educational purposes only. Privacy Policy, DMCA