Alkaline Trio

My Little Needle Tabs



More from Alkaline Trio

Alkaline Trio Tabs
Alkaline Trio Chords
Alkaline Trio Bass
Alkaline Trio Lyrics

Author/Artist: Alkaline Trio
Title: My Little Needle
Album: Goddamnit
Transcribed by: Jim Taone
Email: j_bro124@hotmail.com

The timing isn't perfect, so play
along with the c.d.

enjoy, jim


Intro:
----------------------------------------|
----------------------------------------|
----------------------------------------|
-2-2-2-2--2-2--9-9/11-11/13-13/14-14----|
-2-2-2-2--2-2--x-x-x--x--x--x--x--x-----|
-0-0-0-0--0-0--7-7/9--9-/10-10/12-12----|

----------------------------------------|
----------------------------------------|
----------------------------------------|
-2-2-2-2--2-2--4-4/6-6/7-7/9-9----------|
-2-2-2-2--2-2--x-x-x-x-x-x-x-x----------|
-0-0-0-0--0-0--2-2/4-4/5-5/7-7----------|


Verse:
----------------------------------------|
----------------------------------------|
-9--------------------------------------|
-9---------7----------9-----------------|
-7---------7----------9-----------------|
-----------5----------7-----------------|


Chorus:
-----------------------------------------------------|
-----------------------------------------------------|
-9-9-9---9-9-9---9-9-9---9-9-9-----------------------|
-x-x-x---x-x-x---x-x-x---x-x-x---6-6-6-6---7-7-7-7---|
-7-7-7---7-7-7---7-7-7---7-7-7---6-6-6-6---7-7-7-7---|
---------------------------------4-4-4-4---5-5-5-5---|



Outro:
------------------------------------------------|
------------------------------------------------|
-9-9-9-9-9-9-9-9-9-9-9-99-8-8-8/9-9-9-9-9-9----|
-x-x-x-x-x-x-x-x-x-x-x-x-x-x-x-x-x-x-x-x-x-x----|
-7-7-7-7-7-7-7-7-7-7-7-76-6-6-6/7-7-7-7-7-7----|
------------------------------------------------|

------------------------------------------------|
------------------------------------------------|
-9-9-9-9-9-9-9-9-9-9-9-98-8-8-9/9-9-9-9-9-9----|
-x-x-x-x-x-x-x-x-x-x-x-x-x-x-x-x-x-x-x-x-x-x----|
-7-7-7-7-7-7-7-7-7-7-7-76-6-6-6/7-7-7-7-7-7----|
------------------------------------------------|

------------------------------------------------|
------------------------------------------------|
-14-14-14-13-13-13-11-11-11-9-9-9-9-9-9-9-9-----|
-x--x--x--x--x--x--x--x--x--x-x-x-x-x-x-x-x-----|
-12-12-12-11-11-11-9--9--9--7-7-7-7-7-7-7-7-----|
------------------------------------------------|

------------------------------------------------|
------------------------------------------------|
-14-14-14-13-13-13-11-11-11-9-9-98-8-8/9-9-----|
-x--x--x--x--x--x--x--x--x--x-x-x-x-x-x-x-x-----|
-12-12-12-11-11-11-9--9--9--7-7-76-6-6/7-7-----|
------------------------------------------------|

------------------------------------------------|
------------------------------------------------|
-14-14-14-13-13-13-11-11-11-9-9-9-9-9-9-9-9-----|
-x--x--x--x--x--x--x--x--x--x-x-x-x-x-x-x-x-----|
-12-12-12-11-11-11-9--9--9--7-7-7-7-7-7-7-7-----|
------------------------------------------------|

------------------------------------------------|
------------------------------------------------|
-14--13--11--9---14--13--14--16-----9-----------|
-x---x---x---x---x---x---x---x------9-----------|
-12--11--9---7---12--11--12--14-----7-----------|
------------------------------------------------|

Songflow:

Intro 2x
Verse 8x
Chorus 2x
Intro 2x
Verse 8X
Chorus 2x
Outro


Questions, comments, corrections... e-mail me at j_bro1242@hotmail.com



Get this song at amazon.com      Ebay     Ringtones Ringtones  


Learn to play: Songwriting, Piano, Harmonica, Guitar
Also available at Muzikum: Alkaline Trio - My Little Needle lyrics

Related Alkaline Trio Tabs

Fatally Yours tabs
Private Eye (live) tabs
Donner Party All Night Long tabs
Bloodied Up tabs
Sleepy Head tabs
Mr Chainsaw tabs
I Lied My Face Off Bass tabs
Good Bye Forever tabs
Stupid Kid Intro tabs
Good Mourning tabs
Keep Em Coming Bass tabs
Keep Em Coming tabs
Lucky Smoke Rings tabs
Radio Intro Tab tabs
Cop tabs
Message From Kathlene tabs
While You're Waiting tabs
Queen Of Pain tabs
Bleeder tabs
Private I tabs


Guitar Tabs









All tabs are property and copyright of their owners. All tabs provided for educational purposes only. Privacy Policy, DMCA